Oops, an error
Loading. Please wait.

Blessed Are The Sick Tab

version 2
version 2

Whole song

Interactive

617 views 1 this week
no commentswrite comment
1 2 3 4 5
please rate
add to favorites
launch autoscroll
font size
0
reset
how to read this tab
guitar tuner
Autoscroll
slow
fast
+/-
esc
set tempo
stop
Help us to improve Ultimate-Guitar.com Take our survey!
×
Author
BLESSED ARE THE SICK - Morbid Angel - Blessed Are The Sick

Tuning (Low - High): Eb Ab Db Gb Bb Eb


Intro
|-----------------------------------|
|-------3-6-4-3-4--4-----3-6-4-3-4--|
|-3--4-------------2--6-------------|
|-1--2----------------4-------------|
        pm........       pm.........

|-----------------------|
|-------3-6-4-3-4--4----|
|-3--4-------------2--6-|
|-1--2----------------4-|
        pm........    pm

|-----------------------------|-----------------------------|
|-3--/6----------4--2---------|-3--/6----------4--2---------|
|-1--/4-------4--2--0---------|-1--/4-------4--2--0---------|
|-1--/4---1-1-2--------3-2-1~-|-1--/4---1-1-2--------1~-3-2-|
          pm..         pm..             pm..            pm..

|------------------------------------------|
|-3--/6----------4--2----------------------|
|-1--/4-------4--2--0----------------------|
|-1--/4---1-1-2--------1-2-5-3-2-1-4-2-1-0-|
          pm..         pm..................

A                           Play 2 Times
|--------------------------------------|
|----------------4--2------------------|
|-3--/6-------4--2--0------------------|
|-1--/4---1-1-2--------5-3-2-1-4-2-1-0-|
          pm..         pm..............

|--------------------------------------|
|----------------4--2-\(Dive Wammy-Bar)|
|-3--/6-------4--2--0-\\\\\\\\\\\\\\\\-|
|-1--/4---1-1-2------------------------|
          pm..

B                                                            Play 2 Times
|------------------------------------|----------------------------------|
|---------4--5-----------------------|----------------------------------|
|-3-3-/4--2--3-------4~------3-2-----|-------2--3-------4~------3-2-----|
|-1-1-/2---------1-1-----1-1-----5-2-|-1-/2---------1-1-------------5-2-|
                 pm..    pm..  pm....               pm..        pm......

C1
|----------------------------------|----------------------------------|
|-------4--5-----------------------|-------4--5-----------------------|
|-3-/4--2--3-------3tr4----3~------|-3-/4--2--3-------3tr4----3-2-----|
|-1-/2---------1-1-----1-1-----1-4-|-1-/2---------1-1-----1-1-----5-2-|
               pm..    pm..    pm..               pm..    pm..  pm....

C2
|----------------------------------|----------------------------------|
|-------4--5-----------------------|-------4--5-----------------------|
|-3-/4--2--3-------3tr4----3~------|-3-/4--2--3------/5-------6-5-1---|
|-1-/2---------1-1-----1-1-----1-4-|-1-/2---------1-1---------------2-|
               pm..    pm..    pm..               pm.             pm..


D                               Play 2 Times                 A.H..
|----------------------------------|----------------------------------|
|-------4--5-----------------------|-------4--5---------------3-2~----|
|-3-/4--2--3-------4~------3-2-----|-3-/4--2--3-------4~--------------|
|-1-/2--------1-1-----1-1------5-2-|-1-/2---------1-1-----1-1-----5-2-|
              pm..    pm..   pm....               pm..    pm..

E               Play 4 Times
|----------------------------|
|-7-----6--------------5-----|
|-5--7--4--------4--5--3--5--|
|----5-----4-4-4-2--3-----3--|
           pm...

Repeat B

F                     Play 3 Times
|--------------------------------|
|-------------------------9-/10--|
|-3---4---7-6-2---3---4----------|
|-1---2---5-4-0---1---2---7-/8---|
          pm..

|---------------------------------|
|---------------------------------|
|-3---4---7-6-2---3-/6--6--4--5-5-|
|-1---2---5-4-0---1-/4--4--2--3-3-|
          pm..          pm    pm..

G    A.H.            A.H.     Play 4 Times
|--------------------------------|
|-----2~--------------2~--9-/10--|
|-3-------7-6-2---3--------------|
|-1-------5-4-0---1-------7-/8---|
          pm..

Repeat E

H   (Guitar 1 - Left Speaker)      Play 4 Times
|--------------------------------------|
|-------------6-7-9--------------------|
|-/6--\3--8-9-------9--7---------------|
|-/4--\1------------7--5--5-2--5-3-2-1-|
|   (Guitar 2 - Right Speaker)     |
|--------------------------------------|
|-------------6-7-9--------------------|
|-/6--\3--8-9-------9--7---------------|
|-/4--\1------------7--5--4-1--4-2-1-0-|
          pm......        pm...........

Fill
|------13\\\\\-----|
|------------------|
|------11\\\\\-----|
|-2-2--------------|
  pm.

|------------------------------------|---------------------------------------|
|-----------------4--2---------------|-----------------4--2------------------|
|-/6--\3---4------2--0---------------|-/6--\3---4------2--0------------------|
|-/4--\1---2--1-1-------1--1--1-1-1--|-/4--\1---2--1-1-------5-3-2-1-4-2-1-0-|
              pm..      pm...........              pm..      pm..............


|------------------------------------|---------------------------------------|
|-----------------4--2---------------|-----------------4--2------------------|
|-/6--\3---4------2--0---------------|-/6--\3---4------2--0------------------|
|-/4--\1---2--1-1-------1--1--1-1-1--|-/4--\1---2--1-1-----------------------|
              pm..      pm...........              pm..

Fill
|-----------------------|
|-----------------------|
|-6----5----6--5--4--2--|
|-4----3----4--3--2--1--|
            pm..........

I1
|--------------------------------------|---------------------------------------|
|--------------------------------------|---------------------------------------|
|-6--7\-4-3h4p3-----3--6--6--4------3--|-6--7\-4-3h4p3-----3--6------4------3--|
|-4--5\---------3~--1--4--4--2--3-3-1--|-4--5\---------3~--1--4--4-4-2--3-3-1--|
          pm              pm    pm..           pm                pm..   pm..

I2
|--------------------------------------|---------------------------------------|
|--------------------------------------|---------------------------------------|
|-6--7\-4-3h4p3-2~--3--6--6--4------3--|-6--7\-4-3h4p3-----3--6------4------3--|
|-4--5\-------------1--4--4--2--3-3-1--|-4--5\---------3~--1--4--4-4-2--3-3-1--|
          pm              pm    pm..           pm                pm..   pm..

J  (Guitar 1 - Left Speaker)                             Repeat Till FadeOut....
|--------------------------------------|---------------------------------------|
|-----------------------------4-/5-5--\|---------------------------------------|
|-----------4--3--------------2-/3-3--\|-----------4--3------3-/6--6--4--5--3--|
|-1----2~---------0---1~--2~-----------|-1----2~---------0---1-/4--4--2--3--1--|
|  (Guitar 2 - Right Speaker)
|--------------------------------------|---------------------------------------|
|--------------------------------------|---------------------------------------|
|-----------4--3-----------------------|-----------4--3------3-/6--6--4--5--3--|
|-4----5~---------3--/4~--5~--2-/3-3--\|-4----5~---------3---1-/4--4--2--3--1--|
            pm....                                 pm....          pm    pm....


The End.

Erik
----------------------
erik_heino@hotmail.com
Suggest correction
What's this?
You can suggest a correction to this tab. Community and Mods will review your correction and vote to approve or reject it.
comments
We did not receive enough feedback on this tab! Please rate:
print report bad tab
1 2 3 4 5
guest
You may want to rate the tab now too:
select rating
Please do not post tabs as comments. Select "correction" instead!