Oops, an error
Loading. Please wait.

Caesars Palace Bass Tab

version 1
version 1

Whole song

Interactive

544 views 1 this week
no commentswrite comment
1 2 3 4 5
please rate
add to favorites
launch autoscroll
font size
0
reset
guitar tuner
Autoscroll
slow
fast
+/-
esc
set tempo
stop
Help us to improve Ultimate-Guitar.com Take our survey!
×
Author
TheMutts 13,491
        *----Caesar's Palace
        *----Morbid Angel
        *----Domination

Rhythm guitar tabbed by: erik_heino@hotmail.com
Prettied up for the bass by:  Clint (HeadlessKitty@hotmail.com)
Tuning (Low - High): Eb Ab Db Gb

|----------------------------------|
|------( Guitar Intro )------------|
|------(              )------------|
|----------------------------------|

       Riff B = (B1 + B2) x 3 (still part of intro)
                              (guitars only still
                              (tabbed for the hell of it)
B1
|---------------|------------------|---------------------------|
|---------2-1-2-|---------/3-3-2-1-|---------2-1-2-------------|
|---------------|------------------|---------------2-1-2-1-0-0-|
|-0--0--4-------|-0--0--4----------|-0--0--4-------------------|
        pm              pm                 pm         pm

B2
|---------------|------------------|---------------------------|
|---------2-1-2-|---------/3-3-2-1-|---------2-1-2-------------|
|---------------|------------------|---------------2-1-2-5-0-1-|
|-0--0--4-------|-0--0--4----------|-0--0--4-------------------|
        pm              pm                 pm         pm



       **(Bass Comes In)
C1
|------------------------------------------------------------------------------------|
|------------------------------------------------------------------------------------|
|-------------7--7--7--7--3--3--3--3--3--7--7--7--7----------6-6-6-6-5-5-5-5-1-1-1-1-|
|-5--5--5--5-----------------------------------------4-4-4-4-------------------------|
pm.................................................pml.............................

C2
|------------------------------------------------------------------------------------|
|------------------------------------------------------------------------------------|
|-------------7--7--7--7--3--3--3--3--3----------------------6-6-6-6-5-5-5-5-1-1-1-1-|
|-5--5--5--5-----------------------------5--5--5--5--4-4-4-4-------------------------|
pm.................................................pml.............................


C1'  (second time only, Guitar 1 - Left Speaker Only)
|------------------------------------------------------------------------------------|
|----------------------------------------------------------------------------3-3-3-3-|
|-------------7--7--7--7--3--3--3--3--3--7--7--7--7----------6-6-6-6-5-5-5-5---------|
|-5--5--5--5-----------------------------------------4-4-4-4-------------------------|
pm.................................................pml.............................


Fill
|--------|
|--------|
|--------|
|-3-2-1--|
pm......

D                                          Play 4 Times
|-------------------------|---------------------------|
|-------------------------|---------------------------|
|----2--3------1-------2--|----2--3------1------------|
|-1--------1-1---1/2-1----|-1--------1-1---2\1-1-1-2--|
           pm.       pm              pm.       pm.


E                      Play 4 Times
|---------------------------------|
|---------------------------------|
|-----------------------5\4-------|
|-3--3--2-3-5h6-5h6-5-4-----4-4-4-|
                            pm...

Repeat Fill & D (6 times)
Repeat E

F                         Play 6 Times
|------------------------------------|
|------------------------------------|
|--------2--------------3---------4--|
|-1-/-2-----2--1--3-2-1----3-/-4-----|
                  pm...

G                                            Play 2 Times
|---------------------------|---------------------------|
|---------------------------|---------------------------|
|-------2-----4-----2-------|-------2-----4-----2-------|
|-1--2----2-1---4-3---3-2-1-|-1--2-----2----4-3---3-2-1-|
                    pm.....                     pm.....

Repeat C, Fill, & D


H                                          Play 3 Times
|--------------------------|--------------------------|
|--------------------------|--------------------------|
|-1---------------3--------|--------------------------|
|----2--3--1-0-1--1-/2-1-1-|-3--4--5--1-0-1--1-/2-1-1-|
           pm..        pm..           pm..        pm..

Repeat E, F, & G.
Suggest correction new What's this?
You can suggest a correction to this tab. Community and Mods will review your correction and vote to approve or reject it.
comments
We did not receive enough feedback on this tab! Please rate:
print report bad tab
1 2 3 4 5
guest
You may want to rate the tab now too:
select rating
Please do not post tabs as comments. Select "correction" instead!