Oops, an error
Loading. Please wait.

Caesars Palace Tab

version 1
version 1

Whole song

Interactive

2,966 views 1 this week
1 commentread comment
1 2 3 4 5
please rate
add to favorites
launch autoscroll
font size
0
reset
how to read this tab
guitar tuner
Autoscroll
slow
fast
+/-
esc
set tempo
stop
Help us to improve Ultimate-Guitar.com Take our survey!
×
CAESAR'S PLACE  -  Morbid Angel - Domination

Rhythm Guitar Transcription on Bass (except where noted)
Tuning (Low - High): Eb Ab Db Gb Bb Eb


A  (Guitar 1  Left Speaker)       Play 4 Times
|---------------------|----------------------|
|-10-9----------------|-10-9-----------------|
|------9--------------|------9---------------|
|--------10---9~--8~--|--------10----5~--4~--|
|---------------------|----------------------|
|---------------------|--------------3~--2~--|
A  (Guitar 2  Right Speaker)
|---------------------|----------------------|
|---------------------|----------------------|
|---------------------|----------------------|
|-7--6----------------|-7--6---------5~--4~--|
|------7--------------|------7---------------|
|--------8----7~--6~--|--------8-----3~--2~--|


|------|
|------|
|------|
|-3----|
|------|
|-1----|


B1
|---------------|------------------|---------------------------|
|---------5-4-5-|---------/6-6-5-4-|---------5-4-5-------------|
|---------------|------------------|---------4-3-4-------------|
|-2--2----2-1-2-|-2--2----/3-3-2-1-|-2--2----2-1-2-4-3-4-3-2-2-|
|-2--2--6-------|-2--2--6----------|-2--2--6-------2-1-2-1-0-0-|
|-0--0--4-------|-0--0--4----------|-0--0--4-------------------|
        pm              pm                 pm         pm

B2
|---------------|------------------|---------------------------|
|---------5-4-5-|---------/6-6-5-4-|---------5-4-5-------------|
|---------------|------------------|---------4-3-4-------------|
|-2--2----2-1-2-|-2--2----/3-3-2-1-|-2--2----2-1-2-4-3-4-7-2-3-|
|-2--2--6-------|-2--2--6----------|-2--2--6-------2-1-2-5-0-1-|
|-0--0--4-------|-0--0--4----------|-0--0--4-------------------|
        pm              pm                 pm         pm

Riff B = (B1 + B2) x 3


C1
|------------------------------------------------------------------------------------|

|------------------------------------------------------------------------------------|

|-------------7--7--7--7--3--3--3--3--3--7--7--7--7----------6-6-6-6-5-5-5-5-1-1-1-1-|

|-5--5--5--5-----------------------------------------4-4-4-4-------------------------|


pm.................................................pml.............................

C2
|------------------------------------------------------------------------------------|

|------------------------------------------------------------------------------------|

|-------------7--7--7--7--3--3--3--3--3----------------------6-6-6-6-5-5-5-5-1-1-1-1-|

|-5--5--5--5-----------------------------5--5--5--5--4-4-4-4-------------------------|


pm.................................................pml.............................

C1'  (second time only, Guitar 1 - Left Speaker Only)
|------------------------------------------------------------------------------------|

|----------------------------------------------------------------------------3-3-3-3-|

|-------------7--7--7--7--3--3--3--3--3--7--7--7--7----------6-6-6-6-5-5-5-5---------|

|-5--5--5--5-----------------------------------------4-4-4-4-------------------------|


pm.................................................pml.............................

Fill
|--------|
|--------|
|--------|
|-3-2-1--|
 pm......

D                                          Play 4 Times
|-------------------------|---------------------------|
|----4--5------3-------4--|----4--5------3------------|
|-3--2--3------1-3/4---2--|-3--2--3------1-4\3-----4--|
|-1--------1-1---1/2-1----|-1--------1-1---2\1-1-1-2--|
           pm.       pm              pm.       pm.


E                      Play 4 Times
|---------------------------------|
|-----------------------7\6-------|
|-5--5--4-5-------------5\4-------|
|-3--3--2-3-5h6-5h6-5-4-----4-4-4-|
                            pm...

Repeat Fill & D (6 times)
Repeat E

F                         Play 6 Times
|------------------------------------|
|--------4--------------5---------6--|
|-3-/-4--2--4--3--------3--5-/-6--4--|
|-1-/-2-----2--1--3-2-1----3-/-4-----|
                  pm...

G                                            Play 2 Times
|---------------------------|---------------------------|
|-------4-----6-------------|-------4-----6-------------|
|-3--4--2-4-3-4-6-5-2-------|-3--4--2--4--4-6-5-2-------|
|-1--2----2-1---4-3---3-2-1-|-1--2-----2----4-3---3-2-1-|
                    pm.....                     pm.....

Repeat C, Fill, & D


H                                          Play 3 Times
|--------------------------|--------------------------|
|-3------------------------|--------------------------|
|-1--4--5------3--3-/4-----|-5--6--7------3--3-/4-----|
|----2--3--1-0-1--1-/2-1-1-|-3--4--5--1-0-1--1-/2-1-1-|
           pm..        pm..           pm..        pm..

Repeat E, F, & G.
(There's a couple of fills that I couldn't be bothered to transcribe)

The End



Erik
----------------------
erik_heino@hotmail.com
Suggest correction
What's this?
You can suggest a correction to this tab. Community and Mods will review your correction and vote to approve or reject it.
comments
We did not receive enough feedback on this tab! Please rate:
print report bad tab
1 2 3 4 5
1 comment total.
0 reply
ChuckAleksiJoe 22 wrote on April 29 2012, 02:50 am

Wrong tuning... M.A never used the Eb tuning. They were played on guitar of this album with 7 string guitar. Because of that right tuning is Bb / A#.

guest
You may want to rate the tab now too:
select rating
Please do not post tabs as comments. Select "correction" instead!