Oops, an error
Loading. Please wait.

Cleansed In Pestilence Tab

1,156 views 3 this week
no commentswrite comment
1 2 3 4 5
please rate
add to favorites
launch autoscroll
font size
0
reset
how to read this tab
guitar tuner
Autoscroll
slow
fast
+/-
esc
set tempo
stop
Help us to improve Ultimate-Guitar.com Take our survey!
×
Author
Difficulty
intermediate
Band - Morbid Angel
Song - Cleansed In Pestilence
Album - Heretic (2003)

NOTES:
 " - tremolo
() - tremolo picking note
*  - tremolo picking notes
 x - hard palm muting
 = - sustained note

h - hammer on              ~ - vibrato
p - pull off               b - bend string
^ - pinch harmonics        p.m. - palm mute
x - muted note             t - right hand tap
/ - slide up               \ - slide down

Tune to Eb

Intro                   [Part 1.1]                    [Out 1]
|---------------------||-----------------------------|-------------------|
|---------------------||-----------------------------|-------------------|
|---------------------||-----------------------------|-------------------|
|-8--8--7-7777-5-5555-||-8-8888-7-7777-5-55-4-5-55-4-|-------------------|
|-6--6--5-5555-3-3333-||-6-6666-5-5555-3-33-2-3-33-2-|------------8-8888-|
|---------------------||-----------------------------|-2--3-5-3-2-6-6666-|
          ....   ....      ....   ....   ..     ..                  ....

[Part 1.2]
|----------------------------------|-[Out 1]-|
|----------------------------------|---------|
|----------------------------------|---0-/---|
|-8-8888-7-7777-5-5555-4-44-5-4-44-|----/----|
|-6-6666-5-5555-3-3333-2-22-3-2-22-|---/-0---|
|----------------------------------|---------|
    ....   ....   ....   ..     ..

[PART 1.1] - [OUT 1] - [PART 1.2] - [OUT 1] - [PART 1.1]

[Part 2.1] (x2)                [Out 2]             [Part 2.2]
|-----------------------------|-------------------|-----------------|
|-----------------------------|-------------------|-----------------|
|-----------------------------|-------------------|-----------------|
|-5-5555-7-77-5-8-8888-8-8888-|-------------------|-5-5555-8-8888-8-|
|-3-3333-5-55-3-6-6666-6-6666-|-8-5555-7-5555-3-2-|-3-3333-6-6666-6-|
|----------------------6------|-6-3333-5-3333-3-2-|-----------------|
    ....   ..     ....   ....     ....   ....         ....   ....

{= [Part 2.1] - [Out 2] - [Part 2.2] =}..(x2) - [Part 2.1]

VERSE (x2)
|-[Part 3.1]-----------|-[Part 3.2]-------------(x2)-|
|----------------------|-----------------------------|
|----------------------|-----------------------------|
|-------------8-8888-8-|--------7-77-5-8-8888-8-8888-|
|--------5555-6-6666-6-|-5-5555-5-55-3-6-6666-6-6666-|
|-3--3-5-3333--------6-|-3-3333----------------------|
         ....   ....       ....   ..     ....   ....

|-[Part 3.3]-----------------|
|----------------------------|
|----------------------------|
|--------7-77-5--------------|
|-5-5555-5-55-3--------------|
|-3-3333--------666633665533-|
    ....   ..   ............

        CHORUS (x4):
|-----||----------------------|----------------------|
|-----||----------------------|----------------------|
|-----||----------------------|----------------------|
|-----||----------------------|----------------------| [Gtr. 1]
|-5-4-||----------------------|----------------------|
|-3-2-||-333322--333332-3-0-2-|-333322--333332-3-3-2-|
  . . ||      .       . . . . |      .       . . . . |
      ||               \--3--/|               \--3--/|
|-----||----------------------|----------------------|
|-----||----------------------|----------------------|
|-----||----------------------|----------------------|
|-----||----------------------|----------------------| [Gtr. 2]
|-5-4-||-222211--222221--2-0--|-222211--222221-2-2-1-|
|-3-2-||----------------------|----------------------|
  . .         .       .  . .         .       . . . .
                                              \--3--/
{= [Part 2.2] - [Part 2.1] - [Out 2] - }..(x2) -
[Part 2.2] - [Part 2.1] - VERSE (x2)

|-[CHORUS]-(x2)-|-[Out 3]----|
|---------------|------------|
|------0-/------|-^----------|
|-------/-------|-3-^--------|... [x2]  [CHORUS (x2)]
|------/-0------|---3-5-5-4--|
|---------------|-----3-3-2--|

[Part 4.1]
|----------------------------|----------------------------|
|----------------------------|----------------------------|
|----------------------------|----------------------------|
|----------------------------|----------------------------|
|-2-1111-1-1-2-2-1111-2-4444-|-2-1111-1-1-2-2-1111-2-2--2-|
|-3-2222-2-2-3-3-2222-3-5555-|-3-2222-2-2-3-3-2222-3-3--3-|
  . .... . . . . .... . ....   . .... . . . . .... . .  .

[Part 4.2]
|-------------------------------|----------------------------|
|-------------------------------|----------------------------|
|-------------------------------|----------------------------|
|-------------------------------|----------------------------|
|-2-1111-1-1-2-2-1111-2-444-444-|-2-1111-1-1-2-2-1111-2-2--2-|
|-3-2222-2-2-3-3-2222-3-555-555-|-3-2222-2-2-3-3-2222-3-3--3-|
  . .... . . . . .... . ... ...   . .... . . . . .... . .  .

[Part 4.1] - [Part 4.2]

[Part 5]
|-------------------|-----------------|-------------------|--------------|
|-------------------|-----------------|-------------------|--------------|
|-------^-----------|-------^---------|-------^-----------|---------^----|
|-------5---5-------|-------5---5-----|-------5---5-------|---------4~~~~|
|---------6---5-4~~-|---------6---5~~-|---------6---5-4~~-|--------------|
|-0-----------------|-0---------------|-0-----------------|-0-2-3-2------|
|         . . .     |         . .     |         . . .     | . . . .      |
|-------------------|-----------------|-------------------|--------------|
|-------------------|-----------------|-------------------|--------------|
|-------------------|-----------------|-------------------|---------^----|
|-------------------|-----------------|-------^-----------|---------4~~~~|
|-------6---6-------|-------6---6-----|-------6---6-------|--------------|
|-0-------8---7-6~~-|-0-------8---7~~-|-0-------8---7-6~~-|-0-2-3-2------|
          . . .               . .               . . .       . . . .

[Part 4.1] - [Part 4.2] - [Part 5] - [Part 2.2] - [Part 2.1] - [Out 2] -
[PART 1.1] - [OUT 1] - [PART 1.2] - [OUT 1] - [PART 1.1] - [OUT 1] -
[Part 1.1] - [Part 2.1] - [OUT 2] - [VERSE (x2) + prechorus bar] -
[Out 1] - [Part 1.2] - [Out 1] - [Part 1.1] - [Out 1] - [Part 1.1]

END OF SONG
Suggest correction
What's this?
You can suggest a correction to this tab. Community and Mods will review your correction and vote to approve or reject it.
comments
We did not receive enough feedback on this tab! Please rate:
print report bad tab
1 2 3 4 5
guest
You may want to rate the tab now too:
select rating
Please do not post tabs as comments. Select "correction" instead!