Oops, an error
Loading. Please wait.

Desolate Ways Tab

version 1
version 1

Whole song

39,515 views 93 this week
7 commentsread comments
1 2 3 4 5
x 18
add to favorites
launch autoscroll
font size
0
reset
how to read this tab
guitar tuner
Autoscroll
slow
fast
+/-
esc
set tempo
stop
Help us to improve Ultimate-Guitar.com Take our survey!
×
Author
Tuning
D# G# C# F# A# D#
Tuning : Eb Ab Db Gb Bb Eb

D#|---2---------2--------2---0---------0--------0---2---------2--------2---0--|
A#|-------0--------0-------------0--------0-------------0--------0------------|
F#|---------------------------------------------------------------------------|
C#|---2------2-----2--2------2---2--2--------2------2------2--------2------2--|
G#|---------------------------------------------------------------------------|
D#|---------------------------------------------------------------------------|

D#|----------0---------3---------3--------3---0---------0------------5--------|
A#|-------0-----0----------0--------0-------------0--------0-------------0----|
F#|-0--------------0------------------------------------------0---------------|
C#|-2--2----------------------------------------------------------------------|
G#|--------------------3---3--3--------3------3------3-----------0---5------5-|
D#|---------------------------------------------------------------------------|

D#|-5------------2---------------2--------3---------3------------0--|
A#|----0----------------------0-----0---------0--------0---------1--|
F#|-------0-------------0--------------0------------------0------0--|
C#|----------------------------------------------------------0---2--|
G#|----------5---2---2-----2--------2--2--3------3---------------3--|
D#|----------------------------------------------------------3------|

D#|---2---------2--------2---0---------0--------0---2---------2--------2---0--|
A#|-------0--------0-------------0--------0-------------0--------0------------|
F#|---------------------------------------------------------------------------|
C#|---2---2--2--------2------2---2--2--------2------2------2-----2--2------2--|
G#|---------------------------------------------------------------------------|
D#|---------------------------------------------------------------------------|

D#|----------0---------3--------3-3--------3---0---------0-0------------5--------|
A#|-------0-----0----------0---------0-------------0----------0-------------0----|
F#|-0--------------0---------------------------------------------0---------------|
C#|----2-------------------------------------------------------------------------|
G#|--------------------3------3---------3------3------3-------------0---5------5-|
D#|------------------------------------------------------------------------------|

D#|-5------------2---------------2--------3---------3------------0--|
A#|----0----------------------0-----0---------0--------0---------1--|
F#|-------0-------------0--------------0------------------0------0--|
C#|----------------------------------------------------------0---2--|
G#|----------5---2---------2-----2--------3------3---------------3--|
D#|----------------------------------------------------------3------|

D#|--0----------5---3---0----------3-------2-------0----------3---2---0-------|
A#|------0------------------0----------0-------0-------0------------------0---|
F#|---------------------------------------------------------------------------|
C#|--2------0-----------------------------------------------------------------|
G#|-------------5---3---2------0---3-------2-------3------0---3---2---3------0|
D#|---------------------------------------------------------------------------|

D#|---3-------2-------0----------5---3---0----------3-------2-------0---------|
A#|-------0-------0-------0------------------0----------0-------0-------0-----|
F#|---------------------------------------------------------------------------|
C#|---------------------------------------------------------------------------|
G#|--------------------------0---5---3---2------0---3-------2-------3------0--|
D#|---3-------2-------0-------------------------------------------------------|

D#|-3---2---0---0------3---------3--------3---5---------5------------2--------|
A#|---------1------0-------0--------0-------------0--------0-------------0----|
F#|---------0----------------------------------------0--------0---------------|
C#|---------2----------------------------------------------------0------------|
G#|-3---2---3----------3------3--------3------5------5---------------2------2-|
D#|---------------------------------------------------------------------------|

D#|----2---------0---3---------3--------3---5---------5------------2----------|
A#|-0-----0------1-------0--------0-------------0--------0-------------0-----0|
F#|----------0---0------------------------------------------0-----------------|
C#|--------------2---------------------------------------------0--------------|
G#|--------------3---3------3--------3------5------5---------------2------2---|
D#|---------------------------------------------------------------------------|

D#|--2---------0------------0------------------------------------------0------|
A#|-----0------1---------------0-----------------1p0--------0---0---------0---|
F#|--------0---0------0-----------0--------0----------0-------------0---------|
C#|------------2---2-----2-----------2--0-----0----------0--------------------|
G#|------------3------------------------------------------------3-------------|
D#|---------------------------------------------------------------------------|

D#|----------0--------------------0-------------------------------------------|
A#|0------------3-----3--0--0--------0-----------------1p0--------0---0------0|
F#|----0-----------0--------------------0--------0----------0-------------0---|
C#|----------------------2-----2-----------2--0-----0----------0--------------|
G#|2------2-----------------------------------------------------------3-------|
D#|---------------------------------------------------------------------------|

D#|----------------0------------0---0--------0---------0---0--------0---------|
A#|------0------------3---------1------1--------1------3------3--------3------|
F#|--0-------0-----------0------0------------------0---0------------------0---|
C#|-------------------------0---2---------2------------4---------4------------|
G#|------2------2---------------3----------------------5----------------------|
D#|---------------------------------------------------------------------------|

D#|0---0--------0---------0---0-----------0------------0-----------0--|
A#|1------1--------1------3------3-----------3------5-----------5-----|
F#|0------------------0---0---------0---------------------0-----------|
C#|2---------2------------4------------4---------------------6--------|
G#|3----------------------5-----------------------7-------------------|
D#|-------------------------------------------------------------------|

Author Fausto Cancian

************************************

| p  Pull-off

************************************
Suggest correction
comments
print report bad tab
7 comments total. Showing first comments. show 2 bad comments
+5 reply
a ninja 10 Mar 13, 2009 06:17 PM

idk if the guy above me is joking or what O.o either way he talks like a **** tard good tab bro

guest
You may want to rate the tab now too:
select rating
Wanna post a correction for this tab? Suggest correction