Oops, an error
Loading. Please wait.

Fall From Grace Bass Tab

version 1
version 1

Whole song

Interactive

1,277 views 6 this week
no commentswrite comment
1 2 3 4 5
please rate
add to favorites
launch autoscroll
font size
0
reset
guitar tuner
Tab Pro tools
  • play this tab
  • loop segment
  • change instrument
  • show fretboard
  • metronome
Autoscroll
slow
fast
+/-
esc
set tempo
stop
Contributor
/--------------------------------------------------------------------------
/ The following is the author's own interpretation of the song, to be used/
/ for private use and studying                                            /
/--------------------------------------------------------------------------
Added to UG By Mikhailo

FALL FROM GRACE - Morbid Angel - Blessed are the Sick

Rhythm Guitar Transcribed on Bass
Tuning (Low - High): Eb Ab Db Gb

A
|---------------------------------------------|
|------------------------------------10--9~---|
|-2--4--3------7--6--5--2--4--3---------------|
|-0--2--1--0-0-5--4--3--0--2--1--0-0-8---7~---|
           pm.                   pm.

                                          A.H.
|---------------------------------------------|
|---------------------------------------------|
|-2--4--3------7--6--5--2--4--3---------------|
|-0--2--1--0-0-5--4--3--0--2--1--2-1-0-1-7-6~-|
           pm.                   pm.....

Repeat A


B
|------------------------|
|------------------------|
|----2-2-4----4-4-3------|
|-2---------2--------4-4-|
 pm        pm


C
|--------------------------------------------|
|--------------------------------------------|
|----3-3-4-----2-2-4-----3-3-4----4-4-3------|
|-2---------2---------2---------2--------4-4-|
 pm        pm        pm        pm


D                 A.H.
|--------------------------------------------|
|--------------------------------------------|
|----3-3-4-----4-4-3~---2-2-4-----4-4-3------|
|-2---------2---------2--------2---------4-4-|
 pm        pm        pm       pm

 Repeat C


E (Fill)
|-----------|-------3-----------------------|
|-----------|----------4--3--2--3--2--------|
|----3-3-4--|-3--4--------------------3--2--|
|-2---------|-------------------------------|
 pm           pm...........................


F                                                  Play 4 Times
|-------------------------------------------------------------|
|-------------------------------------------------------------|
|-6-\-3------4-\-3----3--4h5-4h5-2------3------6-\5-----2-5-3-|
|-4-\-1--1-1-2-\-1--1-1----------0--0-0-1--0-0-4-\3-3-3-------|
         pm.       pm               pm.    pm.


G
Play 3 Times
|------------------------------------------|-----------------------------------------|
|------------------------------------------|-----------------------------------------|
|-----------------------------5-7-9-7-5----|---------------------3-3-3-3-2-2-3-3-5-5-|
|-1-1-1-1-1-1-1-1-1-1-1-1-2-2-----------5--|-0-0-0-0-0-0-0-0-1-1---------------------|

  pm.........................
pm......................................

|------------------------------------------|-----------------------------------------|
|------------------------------------------|---------------------5-------------------|
|-----------------------------5-7-9-7-5----|---------------------3-------------------|
|-1-1-1-1-1-1-1-1-1-1-1-1-2-2-----------5--|-0-0-0-0-0-0-0-0-1-1---------------------|

  pm.........................                pm.................


H                          Play 4 Times
|-------------------------------------|
|-------------------------------------|
|-5--3--2--3-/5-\3--5-------------8---|
|-3--1--0--1-/3-\1--3--1-1-1--1-3-6---|
                       pm........


Repeat F, G, & H


I
|-----------------------------------------------------------|
|----------4--------------------------4---------------------|
|-2--5--3--4--2--5--3--6-5-4-2--5--3--4--2--3---------7-5-4-|
|-0--3--1--2--0--3--1--4-3-2-0--3--1--2--0--1--1--1-1-5-3-2-|
                       pm...                   pm....

J                                                                  Play
2 Times
|-----------------------------------------------------------------------------|
|-----------------------------4-4-4-4-3-3-------------------------------------|
|-----------------2-2-5-5-5-5-------------3--3--3--3--6--4----5--------2-5-3--|
|-1-1-1-1-4-4-4-4-------------------------1--1--1--1--4--2----3--1-1-1--------|

  pm.........................             pm........             pm...


K                       (A.H.) - 2nd, 4th, & 6th Time
|---------------------------------|
|-------------4-------------------|    Play 6 Times
|-6-\-3-------2---5---2---3-2-3-/-|
|-4-\-1---1-1-2---3---0-------1-/-|
          pm.            (pm.) - 1st,  3rd, & 5th Time


L
|---------------------------------|--------------------------------|
|------------------------------3--|-----------------------------3--|
|---------------------2----1-2----|---------------------4-4-3-3----|
|-1-1-1-1-1-1-1-1-1-1-------------|-1-1-1-1-1-1-3-3-2-2------------|
  pm.................                pm.........................


M                                                         Play 4 Times
|----------------------------------|---------------------------------|
|-------------------------------3--|-----------------5--4-----7---6--|
|-----------------1h2p1-0-1-1-1----|-----------------3--2--5--5---4--|
|-1-1-1-1-1-1-1-1------------------|-1-1-1-1-1-1-1-1-------3---------|
  pm.............                    pm......................


|----------------------------------|
|-------------------------------3--|
|-----------------1h2p1-0-1-1-1----|
|-1-1-1-1-1-1-1-1------------------|
  pm.............


Repeat H & I
Repeat B & C

N
|--------------------------------------------|
|--------------------------------------------|
|----4-4-5-----5-5-3----2-2-4-----4-4-3------|
|-2---------2---------2--------2---------4-4-|
 pm        pm        pm       pm


Repeat C



|----------------------------------------------------|
|--------6--7-----7--5------------6--7---------------|
|-----4--4--5--5--5--3------5--4--4--5------5--8--7--|
|-3-3-2--------3--------4-4-3--2--------2-2-3--6--5--|
  pm..        pm        pm.             pm..

|---------------------------------------------------------------|
|----6--7-----7--5------------6--7------------------------------|
|-5--4--5--5--5--3------5--4--4--5------5--4--5-----4-----3-----|
|-3--------3--------4-4-3--2--------4-4-3--2--3-----2-----1-----|
 pm       pm        pm.             pm. .


O  (Guitar 1 - Left Speaker)                  Play 2 Times
|----------------------------|---------------------------|
|-2--------------------------|-2-------------------------|
|-2---2--3------3--1---------|-2---2--3------------------|
|-0---------1-1-------3-2-1--|-0---------3-2-0--1--4--3--|
O  (Guitar 2 - Right Speaker)
|----------------------------|---------------------------|
|-2--------------------------|-2-------------------------|
|-2--------------------------|-2-------------------------|
|-0---3--4--1-1-4--2--3-2-1--|-0---3--4--3-2-0--1--4--3--|
 pm         pm.       pm.     pm         pm.


P  (Guitar 1 - Left Speaker)                  Play 2 Times
|----------------------------|---------------------------|
|-2--------------------------|-2-------------------------|
|-2--------------------------|-2-------------------------|
|-0---3--4--1-1-4--2--3-2-1--|-0---3--4--3-2-0--1--4--3--|
P  (Guitar 2 - Right Speaker)
|----------------------------|---------------------------|
|-5--------------------------|-5-------------------------|
|-5---5--6------6--4---------|-5---5--6------------------|
|-3---------4-4-------6-5-4--|-3---------6-5-3--4--7--6--|
 pm         pm.       pm.     pm         pm.

Repeat A & F.



THE END !!!!!!!!!!!!!!!!!


Erik
----------------------
erik_heino@hotmail.com
comments
We did not receive enough feedback on this tab! Please rate:
print report bad tab
1 2 3 4 5
I want to post or [tab]
guest
You may want to rate the tab now too:
select rating
Please do not post tabs as comments. Select "correction" instead!