Oops, an error
Loading. Please wait.

Hatework Tab

version 1
version 1

Whole song

Interactive

969 views 1 this week
no commentswrite comment
1 2 3 4 5
please rate
add to favorites
launch autoscroll
font size
0
reset
how to read this tab
guitar tuner
Tab Pro tools
  • play this tab
  • loop segment
  • change instrument
  • show fretboard
  • metronome
×
Best way to learn
"Hatework"
Autoscroll
slow
fast
+/-
esc
set tempo
stop
Contributor
Tuning - Bb

I know this tab is not 100% accurate but it's the best I could
do for now. 

Start off with keyboard sounds and a military
sound drumming

Intro A			   2x
|---------------------------|
|---------------------------|
|---------------------------|
|-7~-----7--7-----7--8--11--|
|---------------------------|
|-5~-----5--5-----5--6---9--|
Intro B
|---------------------------------|
|---------------------------------|
|---------------------------------|
|-9~-----9--9-----9-10---13--13~--|
|---------------------------------|
|-7~-----7--7-----7--8---11--11~--|
Intro C
|---------------------------------|
|---------------------------------|
|---------------------------------|
|-9~-----9--9-----9-10---13--10~--|
|---------------------------------|
|-7~-----7--7-----7--8---11---8~--|
Intro D
|---------------------------|
|---------------------------|
|---------------------------|
|-6~-----6--6-----6--7--10--|
|---------------------------|
|-4~-----4--4-----4--5---8--|
Keyboard sounds again

Riff 1					   4x
|--------------------------------------------|
|--------------------------------------------|
|--------------------------------------------|
|----5~------6~--5~------5~------6--5--7--8--|
|-2-------2-----------2-------2--------------|
|-0--3~---0--4~--3~---0--3~---0--4--3--5--6--|
pm.       .           .       .

Riff 2
|------------------------------------------------------|
|------------------------------------------------------|
|------------------------------------------------------|
|10~-----7~----10~-----7~----10~-----7~-----5~-----3~--|
|------------------------------------------------------|
|-8~-----5~-----8~-----5~-----8~-----5~-----3~-----1~--|

Riff 1 2x under solo 1
Solo 1
|--------------------------------------------|
|-7~---9sbr~--8--8--7--7/8--7--4--7--7p4h7~--|
|--------------------------------------------|
|--------------------------------------------|
|--------------------------------------------|
|--------------------------------------------|

Riff 1 4x
Riff 2
Riff 3				      4x
|---------------------------------------|
|---------------------------------------|
|---------------------------------------|
|-6-----------5-----------/5~------/6~--|
|-4--7--6--7--3--5/6--5-5------5-5------|
|----5--4--5-----3/4--3-3-/3~--3-3-/4~--|
pm                    . .      . .

Riff 1 4x
Intro A 2x
Intro B
Intro C
Intro D
Keyboard sounds again
Riff 1 4x
Riff 2
Riff 1 4x w/Solo 2 (not tabbed yet)
End of song.
comments
We did not receive enough feedback on this tab! Please rate:
print report bad tab
1 2 3 4 5
I want to post or [tab]
guest
You may want to rate the tab now too:
select rating
Please do not post tabs as comments. Select "correction" instead!