Oops, an error
Loading. Please wait.

In Remembrance Tab

version 1
version 1

Whole song

Interactive

1,209 views 3 this week
no commentswrite comment
1 2 3 4 5
please rate
add to favorites
launch autoscroll
font size
0
reset
how to read this tab
guitar tuner
Tab Pro tools
  • play this tab
  • loop segment
  • change instrument
  • show fretboard
  • metronome
×
Best way to learn
"In Remembrance"
Autoscroll
slow
fast
+/-
esc
set tempo
stop
Contributor
Difficulty
Tabbers playing skills
intermediate
intermediate ++
                                IN REMEMBRANCE
                           As recorded by Morbid Angel
                   (From the 1991 Album BLESSED ARE THE SICK)

Tablature Legend
----------------
 h   - hammer-on
 p   - pull-off
 b   - bend
 pb  - pre-bend
 r   - bend release (if no number after the r, then release immediately)
 /\  - slide into or out of (from/to "nowhere")
 s   - legato slide
 S   - shift slide
  - natural harmonic
[n]  - artificial harmonic
n(n) - tapped harmonic
 ~   - vibrato
 tr  - trill
 T   - tap
 TP  - trem. picking
 PM  - palm muting
\n/  - tremolo bar dip; n = amount to dip
 \n  - tremolo bar down
 n/  - tremolo bar up
/n\  - tremolo bar inverted dip
 =   - hold bend; also acts as connecting device for hammers/pulls
 <>  - volume swell (louder/softer)
 x   - on rhythm slash represents muted slash
 o   - on rhythm slash represents single note slash

Music by Trey Azagthoth
Arranged by Morbid Angel
Transcribed by Inflames130

Gtr I (B E A D Gb B) - 'Piano'

 Intro
  Q=92
  E              F#                G              A      C    B
 6/8
  Gtr I
  E  E E E E E   E  E E S Q  +S    E  E E E E E   E  E E  S Q   +S
|-0--2-3-5-3-2-|-3--2-3-5-7--(7)-|-8--7-5-3-5-7-|-8--7-5-10-8---(8)-|
|--------------|-----------------|--------------|-------------------|
|--------------|-----------------|--------------|-------------------|
|--------------|-----------------|--------------|-------------------|
|--------------|-----------------|--------------|-0-----------------|
|-0------------|-2---------------|-3------------|---------8---7-----|
  H.             H.                H.             Q.      Q   E


  E         G        F#      G     A            G   F#      G
   E   E  E  Q   E   E E E E E E    E E E E  E  E   E  E  E Q.
|-13--12-12-12---5-|-3-2-3-5-7-8-|-10-8-7-5--3--7-|-8--7----3----|
|------------------|-------------|----------------|------10------|
|------------0-----|-------------|----------------|--------------|
|------------------|-------------|----------------|--------------|
|------------------|-------------|--0-------(0)---|-9------------|
|--0---------------|-2-------3---|--------------3-|---------3----|
   Q.        Q.      H       Q      H       +E  E   Q.      Q.


 Verse
  Q=70
  E      F#       G      A        E       F#        G      A
  E  E E E  E E   E  E E E  E E   +E  E E E  E  E   E  E E E  E E
|-3--5-3----2-5-|-8--7-5-3--2-3-|-(3)-5-7-8--7----|-3--2-3-2------|
|--------5------|---------------|--------------10-|-----------5-3-|
|---------------|---------------|-----------------|---------------|
|---------------|---------------|-----------------|---------------|
|---------------|--------0------|---------9-------|--------0------|
|-0------2------|-3-------------|--0--------------|-3-------------|
  Q.     Q.       Q.     Q.        Q.     Q.        Q.     Q.


  E       F#        G             A    E       F#      G       A
  +E  E E E   E E    E E E  E  E   E   E  E  E Q   E   +E  E E  E  E  E
|-----7-8-7-------|-10-8-7-----------|-7--8-10-8---7-|-(7)-8-7----------|
|-(3)--------10-8-|--------10--8--10-|---------------|---------10--8-10-|
|-----------------|--0--------(0)----|---------------|--0---------------|
|-----------------|------------------|---------------|------------------|
|---------9-------|----------------0-|---------9-----|----------0-------|
|--0--------------|------------------|-0-------------|------------------|
   Q.     Q.         H        +E   E   Q.      Q.       Q.      Q.


  E       F#      G        D         E      F#         G       A
  E  E  E Q   E   +E  E. S  E  E E   E  E E S Q  +S    +E  E E E  E e
|-7--8-10-8---7-|-(7)-8--7-------7-|-3--2------------|-----2-3-2--3----|
|---------------|----------10--8---|------5-3h5--(5)-|-(5)----------3--|
|---------------|--0---------------|-----------------|-----------------|
|---------------|-----------0------|-----------------|-----------------|
|---------9-----|------------------|-----------------|---------0-------|
|-0-------------|------------------|-0------2--------|--3--------------|
  Q.      Q.       Q.       Q.       Q.     Q.          Q.     Q.


  E      F#       G            A
  E  E E E  E E   +E  S S  S S  S  S E E
|----2-3-5--2-3-|-(3)-8-7----------------|
|-5-------------|---------10-8-10--8-7-8-|
|---------------|--0---------------------|
|---------------|------------------------|
|---------------|---------------0--------|
|-0------2------|------------------------|
  Q.     Q.        Q.           Q.


  E              F#        G            A
  +E  S S S S S  S S +E.   +Q   +S. X X  e S S  E
|-------2-3-5-7--8-7-(7)-|-(7)--(7)-----10-8-7----|
|-(8)-5------------------|------------x--------10-|
|------------------------|--0-------x-------------|
|------------------------|------------------------|
|-------------9----------|---------------0--------|
|--0---------------------|------------------------|
   Q.         Q.            Q.           e Q


                      Q=67                          Q=65
  E         F#        G            A                E        F#
   +Q   S S S  S Q    +E   S S S S S   S S  S S S   S  S E H
|-------3-5-7--8-7--|-(7)-10-8-7-8-7--------------|----------------|
|-(10)--------------|-----------------10-8-10-8-7-|-8--7-----------|
|-------------------|--0--------------------------|------9-7-------|
|-------------------|-----------------------------|----------------|
|-----------9-------|--------------0--------------|----------------|
|---0---------------|-----------------------------|-0--------2-----|
    Q.      Q.         Q.          Q.               Q.       Q.


 Outro
  Q=45                     Q=40
  G            A           E
  S  S S S S S S  S S E.   E  E  E   Q.      +H.
|--------2---2-3--2-3-7--|-8--7------7----|--(7)----*|
|-5--3-5---5-------------|------10-(10)---|-(10)----*|
|------------------------|----------------|---------*|
|------------------------|----------------|---------*|
|--------------0---------|----------------|---------*|
|-3----------------------|-0--------------|--(0)----*|
  Q.           Q.          H.                +H.
comments
We did not receive enough feedback on this tab! Please rate:
print report bad tab
1 2 3 4 5
I want to post or [tab]
guest
You may want to rate the tab now too:
select rating
Please do not post tabs as comments. Select "correction" instead!