Oops, an error
Loading. Please wait.

In Remembrance Tab

version 2
version 2

Whole song

Interactive

449 views 1 this week
no commentswrite comment
1 2 3 4 5
1 last vote to show rating
add to favorites
launch autoscroll
font size
0
reset
how to read this tab
guitar tuner
Autoscroll
slow
fast
+/-
esc
set tempo
stop
Help us to improve Ultimate-Guitar.com Take our survey!
×
MORBID ANGEL "In remembrance"
=============================

by Me

Trascription for guitar
(Fingerstyle)

|----------0-----------------0--2----3--2--0-----0--2--3--2--0--/5--3--------|
|-0--2--3-----3--2--3--2--3-------------------3------------------------------|
|----------------------------------------------------------------0-----------|
|------------------------------------0-----------------2-----------------4---|
|-2-----------------4--------------------------------------------------------|
|----------------------------------------------------------------------------|

 --8--7--7--7----0-------------0--2--3--5--3--2--0------2--3--2--0-----------|
 ---------------------3--2--3-----------------------3---------------3--------|
 ----------------------------------------------------------------------------|
 -----------0---------------------0-----2---------------0-----------0--------|
 ---------------------4------------------------------------4-----------------|
 --7-------------------------------------------------------------------------|

 -----0--------------3--2--0--------------0--2--3--2--0----------------------|
 --3-----3--0--2--3-----------3--2--3--------------------3--2--3--2--0-------|
 -----------------------------------------------------------------------2----|
 --------------------0--------2--------------------------0--------2----------|
 --2--------4--------------------------2--------4----------------------------|
 ----------------------------------------------------------------------------|

 ----2--3--2--0-----5--3--2--0-------0--2--3--5--3--2-----3--2--0-----0------|
 ----------------3--------------3----------------------------------3---------|
 ----------------------------------------------------------------------------|
 -------------------0----------------2-----------------0--------2------------|
 -2--------4----------------------------2--------4---------------------------|
 ----------------------------------------------------------------------------|

 --2--3--5--3--2-----3---2--0-----2------------------------------------------|
 ------------------------------3------3--2--0-----0-------2--3--2--3---------|
 ----------------------------------------------2----------------------2------|
 -----------------0---------2--------------------------0--------2------------|
 --2--------4-------------------------2--------4-----------------------------|
 --------------------------------------- ------------------------------------|

 -----------0------------3--2--0-----0----------------------0-2--3--2--------|
 --0--2--3-----2--3---------------3-----3--2--3-------0-2-3------------------|
 ----------------------------------------------------------------------------|
 --------------------0---------------2----------------------------------0----|
 --2--------4-------------------------------------2-----------4--------------|
 ----------------------------------------------------------------------------|

 --5--3--2--0--------0--2--3--2-----5-3-2-3-2p0---0--------------------------|
 -----------------3-----------------------------3---3-2-3p2-0----------------|
 --------------------------------------------------------------2-------------|
 --2-----------------------------0----------2--------------------------------|
 --------------2--------4-------------------------------2---------4----------|
 ----------------------------------------------------------------------------|

 -----------------------2---3---2---0---------2--|
 --0-----0--2-0-2-3-2-3--------------------------|
 -----2------------------------------------4-----|
 --0--------------2---------------------4--------|
 ---------------------------2--------------------|
 ------------------------------------------------|
Suggest correction
Give kudos to tab author, rate the tab!
1 2 3 4 5
comments
print report bad tab
guest
You may want to rate the tab now too:
select rating
Wanna post a correction for this tab? Suggest correction