Oops, an error
Loading. Please wait.

Maze Of Torment Bass Tab

version 1
version 1

Whole song

Interactive

2,589 views 1 this week
no commentswrite comment
1 2 3 4 5
2 more votes to show rating
add to favorites
launch autoscroll
font size
0
reset
guitar tuner
Autoscroll
slow
fast
+/-
esc
set tempo
stop
Help us to improve Ultimate-Guitar.com Take our survey!
×
Author
Difficulty
novice
Morbid Angel - Maze of Torment
Tuning - Eb

Gb   ------------------------|
Db   ------------------------|
Ab   ---7--7-8--7-----10-9---|
Eb   -------------8-0--------|

Gb   ------------------------------------|
Db   ------------------------------------| X4
Ab   --------77-----78------7-----10-9---|
Eb   ---0000----000----0000---8-0--------|

Gb   ---------------------|
Db   ---------------------| X4
Ab   ---------------------|
Eb   ---0-3-2-3-1-3-2-3---|

Gb   -------------------------------------|
Db   -------------------------------------| X4
Ab   ----------------5-7------------------|
Eb   ---0-6-5-X2-0-7-----0-6-5-X2-0-3-4---|

Gb   ---------------------|
Db   ---------------------| X4
Ab   ---------------------|
Eb   ---0-3-2-3-1-3-2-3---|

Gb   -------------------------------------|
Db   -------------------------------------| X2
Ab   ----------------5-7------------------|
Eb   ---0-6-5-X2-0-7-----0-6-5-X2-0-3-4---|

Gb   ----------------|
Db   ----------------| X4
Ab   ----------333---|
Eb   ---1111-2-------|

Gb   ---------------------|
Db   ---------------------| X4
Ab   ---------------------|
Eb   ---0-3-2-3-1-3-2-3---|

Gb   -------------------------------------|
Db   -------------------------------------| X4
Ab   ----------------5-7------------------|
Eb   ---0-6-5-X2-0-7-----0-6-5-X2-0-3-4---|

Gb   ----------------|
Db   ----------------| X4
Ab   ----------333---|
Eb   ---1111-2-------|

Gb   -------------------------------------|
Db   -------------------------------------| X4
Ab   ----------------5-7------------------|
Eb   ---0-6-5-X2-0-7-----0-6-5-X2-0-3-4---|

Gb   -----------------|
Db   -----------------| X8
Ab   -----------------|
Eb   ---1-1-1--3333---|

Gb   ------------------------------------|
Db   ------------------------------------| X4
Ab   --------77-----78------7-----10-9---|
Eb   ---0000----000----0000---8-0--------|

Gb   -------------------------------------|
Db   -------------------------------------| X4
Ab   -----7-6-7-------9-10-8--------------|
Eb   ---0-------8-000--------9-10-9-8-0---|

Gb   ------------------------------------|
Db   ------------------------------------| X2
Ab   --------77-----78------7-----10-9---|
Eb   ---0000----000----0000---8-0--------|

Gb   -------------------------------------|
Db   -------------------------------------| X4
Ab   ----------------5-7------------------|
Eb   ---0-6-5-X2-0-7-----0-6-5-X2-0-3-4---|

Gb   ----------------|
Db   ----------------| X4
Ab   ----------333---|
Eb   ---1111-2-------|

Gb   ---------------------|
Db   ---------------------| X4
Ab   ---------------------|
Eb   ---0-3-2-3-1-3-2-3---|
Suggest correction
Give kudos to tab author, rate the tab!
1 2 3 4 5
comments
print report bad tab
guest
You may want to rate the tab now too:
select rating
Wanna post a correction for this tab? Suggest correction