Oops, an error
Loading. Please wait.

Maze Of Torment Tab

version 2
version 2

Whole song

Interactive

15,042 views 21 this week
2 commentsread comments
1 2 3 4 5
x 8
add to favorites
launch autoscroll
font size
0
reset
how to read this tab
guitar tuner
Autoscroll
slow
fast
+/-
esc
set tempo
stop
Help us to improve Ultimate-Guitar.com Take our survey!
×
Author
/---------------------------------------------------------------------------/
/    The following is the author's own interpretation of the song, to be    /
/                     used for private use and studying                     /
/---------------------------------------------------------------------------/

                      MORBID ANGEL - MAZE OF TORMENT
                     From the Album ALTERS OF MADNESS
                     Copyright 1989 EARACHE RECORDS

                        Version 666 - MARCH 2005

Transcribed by: Death8699 & Hellspawn

For Questions, Comments, Newest Version, or Corrections contact
 Death8699: at MethylinInfo@aol.com

Check Out Death Warp, With More Transcriptions On It:
 http://www.deathwarp.com/

..  - palm mute          /  - slide up to
 \  - slide down to      ~  - vibrato
 h  - hammer on          b  - bend
 p  - pull off            Suffixes for bend
                          ph - pinch harmonic
                           f - full bend    h - half bend
*  - see comment           r - release      t - tap bend
X  - percussion mute       ~ - vibrato bend
@  - slight palm mute     () - ghost note, sustained note

Tune Gtr to E-Flat (1/2 Step Down)

--MAZE OF TORMENT--

|Intro|
|-----------------------------------------------------------------------|
|-----------------------------------------------------------------------|
|:-------------9---9-9---------9/10\9---------------9---9------12---11-:| 
|:-------------9---9-9------------------------------9---9-10---12---11-:|
|--------------7---7-7---------7/8-\7---------------7---7-10---10---9---|
|--0--0--0--0------------0--0--sl--sl---0--0--0--0--------8-------------|
|  .  .  .  .            .  .           .  .  .  .                      |
|-----------------------------------------------------------------------|
|-----------------------------------------------------------------------|
|--------------9---9-9---------9/10\9---------------9---9------12---11--|
|--------------9---9-9------------------------------9---9-10---12---11--|
|--------------7---7-7---------7/8-\7---------------7---7-10---10---9---|
|------------------------------sl--sl---------------------8-------------|


Play Intro a total of one time only.


 |Riff A|
||-----------------------------------------------------------------------||
||-----------------------------------------------------------------------||
||:-------------9---9-9---------9/10\9---------------9---9------12---11-:|| 
||:-------------9---9-9------------------------------9---9-10---12---11-:||
||--------------7---7-7---------7/8-\7---------------7---7-10---10---9---||
||--0--0--0--0------------0--0--sl--sl---0--0--0--0--------8-------------||
    .  .  .  .            .  .           .  .  .  .


Play Riff A a total of 4 times.
 

 |Riff B|(*)
||----------------------------------|----------------------------------||
||----------------------------------|----------------------------------||
||:---------------------------------|---------------------------------:||
||:---------------------------------|---------------------------------:||
||----------------------------------|----------------------------------||
||--0-0-0-0-3-3-3-3-2-2-2-2-3-3-3-3-|-1-1-1-1-3-3-3-3-2-2-2-2-3-3-3-3--||
||  . . . . . . . . . . . . . . . .   . . . . . . . . . . . . . . . .  ||
||----------------------------------|----------------------------------||
||----------------------------------|----------------------------------||
||----------------------------------|----------------------------------||
||----------------------------------|----------------------------------||
||--2-------5-------4-------5-------|-3-------5-------4-------5--------||
||--0-------3-------2-------3-------|-1-------3-------2-------3--------||
    .       .       .       .         .       .       .       .


(*) = First time guitar two is out.  


Play Riff B a total of 8 times.


|Riff C|
|---------------------------------------------------|
|---------------------------------------------------|
|:--------------------------------------------------|
|:----------------------------------------------7/9-|
|------------------8\7---------8\7---------8\7--5/7-|
|--0-0-0-0-0-0-0-0-6\5-0-0-0-0-6\5-0-0-0-0-6\5--sl--|
|  @ @ @ @ @ @ @ @  sl @ @ @ @  sl @ @ @ @  sl      |
|---------------------------------------------------|
|---------------------------------------------------|
|---------------------------------------------------|
|-----------------------------------------------7/9-|
|--2---------------------------------------8\7--5/7-|
|--0---------------------------------------6\5--sl--|
                                            sl 
|---------------------------------------------------|
|---------------------------------------------------|
|--------------------------------------------------:|
|--------------------------------------5-5-6-------:|
|--8\7---------8\7---------8\7----------------------|
|--6\5-0-0-0-0-6\5-0-0-0-0-6\5-0-0-0-0-3-3-4--------|
|   sl @ @ @ @  sl @ @ @ @  sl @ @ @ @              |
|---------------------------------------------------|
|---------------------------------------------------|
|---------------------------------------------------|
|--------------------------------------5-5-6--------|
|--8\7---------8\7---------8\7----------------------|
|--6\5-0-0-0-0-6\5-0-0-0-0-6\5-0-0-0-0-3-3-4--------|
    sl @ @ @ @  sl @ @ @ @  sl @ @ @ @


Play Riff C a total of 4 times.


|Riff D|
|--------------------------------------------------|
|--------------------------------------------------|
|:-----------------------------------------9/10\9--|
|:-------------------------------------------------|
|------------------8\7---------8\7---------7/8-\7--|
|--0-0-0-0-0-0-0-0-6\5-0-0-0-0-6\5-0-0-0-0-sl--sl--|
|  @ @ @ @ @ @ @ @  sl @ @ @ @  sl @ @ @ @         |
|--------------------------------------------------|
|--------------------------------------------------|
|-------------------------------------------------:|
|------------------------------------------5-5-6--:|
|------------------8\7---------8\7-----------------|
|--0-0-0-0-0-0-0-0-6\5-0-0-0-0-6\5-0-0-0-0-3-3-4---|
   @ @ @ @ @ @ @ @  sl @ @ @ @  sl @ @ @ @


Play Riff D a total of 2 times.


Repeat Riff B a total of 4 times.
Repeat Riff D a total of 2 times.


 |Riff E|
||---------------------------------------------------------------||
||---------------------------------------------------------------||
||:-------------------------------------------------------------:||
||:-------------------------------------------------5\3---------:||
||--------------------------------------------------3\1----------||
||--1-1-1-1-1-1-1-1-1-1-1-1-1-1-1-1-2-2-2-2-2-2-2-2--sl-2-2-2-2--||
    @ @ @ @ @ @ @ @ @ @ @ @ @ @ @ @ @ @ @ @ @ @ @ @     @ @ @ @


Play Riff E a total of 4 times.


Repeat Riff B a total of 4 times.
Repeat Riff D a total of 2 times.
Repeat Riff E a total of 4 times.
Repeat Riff C a total of 4 times.


 |Riff F|
||--------------------------------|------------------------------||
||--------------------------------|------------------------------||
||:-------------------------------|-----------------------------:||
||:-------------------------------|-------------------4\3/5-3---:||
||--3---3-3-3--3-3-3--3-3-5-6-4-5-|-3---3-3-3--3-3-3--2\1/3-1----||
||--1---1-1-1--1-1-1--1-1-3-4-2-3-|-1---1-1-1--1-1-1----sl-------||
        . .    . .    . . . . . .       . .    . .


Play Riff F a total of 5 times.


Repeat Riff A a total of 4 times.


|Riff G|
|--------------------|--------------------|----------------------|
|--------------------|--------------------|----------------------|
|:-----------9\8/9---|--------------------|-----------11/12\11---|
|:-------------------|-------10-(10)\-----|-----------11/12\11---|
|--2---------7\6/7---|-------10-(10)\-----|-2---------9-/10\9----|
|--0---0--0---sl-----|-0--0--8--(8)-\-----|-0---0--0---sl--sl----|
|  .   .  .          | .  .         sl      .   .  .
|--------------------|
|--------------------|
|--------6/7\6---5--:|
|--------6/7\6---5--:|
|--------4/5\4---3---|
|--0--0--sl-sl-------|
   .  .


Play Riff G a total of 4 times.


|Riff C.1|
|---------------------------------------------------|
|---------------------------------------------------|
|:--------------------------------------------------|
|:----------------------------------------------7/9-|
|------------------8\7---------8\7---------8\7--5/7-|
|--0-0-0-0-0-0-0-0-6\5-0-0-0-0-6\5-0-0-0-0-6\5--sl--|
|  @ @ @ @ @ @ @ @  sl @ @ @ @  sl @ @ @ @  sl      |
|---------------------------------------------------|
|---------------------------------------------------|
|---------------------------------------------------|
|-----------------------------------------------7/9-|
|------------------------------------------8\7--5/7-|
|------------------------------------------6\5--sl--|
                                            sl
|---------------------------------------------------|
|---------------------------------------------------|
|--------------------------------------------------:|
|--------------------------------------5-5-6-------:|
|--8\7---------8\7---------8\7----------------------|
|--6\5-0-0-0-0-6\5-0-0-0-0-6\5-0-0-0-0-3-3-4--------|
|   sl @ @ @ @  sl @ @ @ @  sl @ @ @ @              |
|---------------------------------------------------|
|---------------------------------------------------|
|---------------------------------------------------|
|--------------------------------------5-5-6--------|
|--8\7---------8\7---------8\7----------------------|
|--6\5-0-0-0-0-6\5-0-0-0-0-6\5-0-0-0-0-3-3-4--------|
    sl @ @ @ @  sl @ @ @ @  sl @ @ @ @


Play Riff C.1 a total of 5 times.


Repeat Riff E a total of 4 times.
Repeat Riff B a total of 4 times.


|End|
|--------|
|--------|
|--------|
|--------|
|-2------|
|-0------|

Check Out Death Warp, With More Transcriptions On It:
 http://www.deathwarp.com/
Suggest correction
comments
print report bad tab
2 comments total.
+1 reply
ihatetabs 10 May 08, 2009 04:28 PM

|Riff G| correction V
|--------------------|--------------------|----------------------|
|--------------------|--------------------|----------------------|
|:-----------9\8/9---|--------------------|-----------11/12\10---|
|:-------------------|-------10-(10)\-----|-----------11/12\10---|
|--2---------7\6/7---|-------10-(10)\-----|-2---------9-/10\8----|
|--0---0--0---sl-----|-0--0--8--(8)-\-----|-0---0--0---sl--sl----|
| . . . | . . sl . . .
|--------------------|
|--------------------|
|--------6/7\6---5--:|
|--------6/7\6---5--:|
|--------4/5\4---3---|
|--0--0--sl-sl-------|
. .

+1 reply
UtopiaBanished 51 Dec 12, 2009 04:21 PM

It's spelled Altars.

guest
You may want to rate the tab now too:
select rating
Wanna post a correction for this tab? Suggest correction