Oops, an error
Loading. Please wait.

Rapture Tab

version 3
version 3

Whole song

Interactive

558 views 3 this week
no commentswrite comment
1 2 3 4 5
2 more votes to show rating
add to favorites
launch autoscroll
font size
0
reset
how to read this tab
guitar tuner
Autoscroll
slow
fast
+/-
esc
set tempo
stop
Help us to improve Ultimate-Guitar.com Take our survey!
×
RAPTURE - Morbid Angel - Covenant

Tuning (Low - High): Eb Ab Db Gb Bb Eb


(Gradual Fade In)
|---------------------------------|
|-3-3-3-3-3-3-3-3-3-3-3-3-3-3-3-3-|
|-3-3-3-3-3-3-3-3-3-3-3-3-3-3-3-3-|
|-1-1-1-1-1-1-1-1-1-1-1-1-1-1-1-1-|

A
|-------------------------------------------------|
|-------------------------------------------------|
|-3------3------------3--------3--2-2-2-2-1-1-1-1-|
|-1--2-2-1--1-1-3-3-2-1--3-3-2-1------------------|
     pm..   pm........   pm....

|-------------------------------------------------|
|---------------------------------4---3--/6-------|
|-3------3------------3--------3--2---1--/4-------|
|-1--2-2-1--1-1-3-3-2-1--3-3-2-1------------------|
     pm..   pm........   pm....

B
|-------------------------------------------------------------------------|
|-------------------------------------------------------------------------|
|---------------------------------------------------------2-2-2-2-1-1-1-1-|
|-1-1-1-1-2-2-1-1-4-4-4-4-3-3-3-3-1-1-4-4-4-4-3-3-3-3-1-1-----------------|
  pm......................................................

                                                                     Play Riff B  3 Times
|-----------------------------------------------------------------------|
|---------------------------------------------------------4---3--/6-----|
|---------------------------------------------------------2---1--/4-----|
|-1-1-1-1-2-2-1-1-4-4-4-4-3-3-3-3-1-1-4-4-4-4-3-3-3-3-1-1---------------|
  pm......................................................

4th Time:
|-------------------------------------------------------------------------|
|-------------------------------------------------------------------------|
|---------------------------------------------------------2-2-2-2-1-1-1-1-|
|-1-1-1-1-2-2-1-1-4-4-4-4-3-3-3-3-1-1-4-4-4-4-3-3-3-3-1-1-----------------|
  pm......................................................

|-----------------------------------------------------------------------|
|---------------------------------------------------------4---3---------|
|---------------------------------------------------------2---1---9-----|
|-1-1-1-1-2-2-1-1-4-4-4-4-3-3-3-3-1-1-4-4-4-4-3-3-3-3-1-1---------7-----|
  pm......................................................

C                       Play 4 Times
|--------------9---------------10--|
|--------------9------9\8------10--|
|-------8------7------7\6-9\8--8---|
|-7-8-7-6--6-6----6-6-----7\6------|
  pm....   pm..   pm..

D1                  Play 3 Times
|------------------------------|
|--0h3-------------------------|
|-3----1-1-1-1-3-3-3-3-0-0-0-0-|
|------------------------------|
       pm......................

 
D2
|------------------------------|
|--0h3-----------------2-------|
|-3----1-1-1-1-3-3-3-3-0-------|
|------------------------------|
       pm..............

Repeat D1 & D2, C, (D1 + D2) x 2, and C

E1
|-----------------------------------|----------------------------|
|-----------------------------------|----------------------------|
|-----------------0-0-0-0-1-1-------|------------------0--1-0----|
|-1-1-1-1-2-2-2-2-------------2-4-2-|-1-1-1-1-2-2-2-2---------2--|
  pm..........................        pm...............

E2
|-----------------------------------|----------------------------|
|-----------------------------------|-------------------2--3-----|
|-----------------1-1-1-1--------3--|-------------------0--1-----|
|-1-1-1-1-2-2-2-2----------2--2--1--|-1-1-1-1-2-2-2-2------------|
  pm.......................           pm...............

Repeat (E1 + E2) 3 more times

F                         A.H.   Play 8 Times
|------------------------------------------|
|------------------------------------------|
|-4---3--3--3--0--1--0~----7~--6--3--4--5--|
|-2---1--1--1------------------4--1--2--3--|
      pm.......                pm..........

G                          Play 4 Times
|-------------------------------------|
|-------------------------------4--3--|
|---4------6------4------6------2--1--|
|-1-2--1-1-4--1-1-2--1-1-4--1-1-------|
  pm   pm..   pm..   pm..   pm..

Repeat F (4 Times)
Repeat A (4 Times), B (4 Times), C, D, C (2 Times), E1/E2.


The End.
Suggest correction
Give kudos to tab author, rate the tab!
1 2 3 4 5
comments
print report bad tab
guest
You may want to rate the tab now too:
select rating
Wanna post a correction for this tab? Suggest correction