Oops, an error
Loading. Please wait.

The Lions Den Tab

version 1
version 1

Whole song

Interactive

3,136 views 1 this week
2 commentsread comments
1 2 3 4 5
please rate
add to favorites
launch autoscroll
font size
0
reset
how to read this tab
guitar tuner
Tab Pro tools
  • play this tab
  • loop segment
  • change instrument
  • show fretboard
  • metronome
×
Best way to learn
"The Lions Den"
Autoscroll
slow
fast
+/-
esc
set tempo
stop
                  The Lion's Den by Morbid Angel (Covenant)
                    tabbed by AKHKHARU@ix.netcom.com
                             (Ian Richmond)
 tuned in Eb
    p.m.......................................................................................................................
 - ---------------------------------------------------------------------------------------------------------------------------
 - ----------------------------------------------------------------------------------------------------------------------------
 - -----------------------------5(harm)---------------------------5(harm)--------------------------------------------------------
 - ------------------------------------------------------------------------------------------------------------------------------
 - ------------------------------------------------------------------------------------------------------------------------------
 -  6 5 0 6 5 0 3 5  6 5 0 6 5 0    6 5 0 6 5 0 3 5  6 5 0 6 5 0    6 5 0 6 5 0 3 5  6 5 0 6 5 0   6 5 0 6 5 0 3 5 6 5 0 6 5 0


r- ---------------------------------------------------------------------------------------------------------------------------
h- ----------------------------------------------------------------------------------------------------------------------------
y- ----------------------------------------------------------------------------------------------------------------------------
 - ----------------------------------------------------------------------------------------------------------------------------                                                                                    (tremelo picking)                      3
1-------5------7------5------2-----5------7------8------7-8-7------5------7-------------------1------------------------------3
 - 0000 3 0000 5 0000 3 0000 0 0000 3 0000 5 0000 6 0000 5-6-5 0000 3 0000 5 0000 3 0-----------------------repeat X4--------1

 
r- ----------------------------------------------------------------------------------------------------------------------------
h- ----------------------------------------------------------------------------------------------------------------------------
y- ----------------------------------------------------------------------------------------------------------------------------
 ------------------------------------------(3)---------------------------------------------------------------------------------
2- ----------------------------------------------------------------------------------------------------------------------------
 - - 5    5 5 6 3 2~~ ----2----5 5 6 3 2 1~     four times 

 
 - -----------------------------------------------
 -------------------------------------------------                  added after 
 - -----------------------------------------------                 second repeat
 - 2 ---------------  5 ---- 7 ---  8 ---- 8 -----                  each time
 - 2 ---------------  5 ---- 7 ---  8 ---- 8 - repeat X4                  ^
 - 0 0000000000000000 3 0000 5 0000 6 0000 6                         5   565
                                                                                                          
 
 play rhy 1 (second guitar playing open Eb w/ flange effect swelling up/down slowly)

 play rhy 2 again
  
                double bass only and "Whips crack...centurians......................might be known
 
-  -------------------------------------------------------------------------------------------
-  -------------------------------------------------------------------------------------------
- -----------------------------------------------------------------6----5--5-----4--4----3
-------------------------------------------------------------------6----5--5-----4--4----3
- 2 4 5----------------------------------------------------- -^----4----3--3-----2--2----1
- 0 2 3 ---------------------------------------------------- 0 1 / 4----3--3-----2--2----1
 pm.....

 
 play rhy 1 again

 --------------------------------------------------------------------
r--------------------------------------------------------------------
h--------------------------------------------------------------------
y-------------------------------------------------------------------repeat X4
---------------------------------------------------------------------
3- - 55554444 --------------------------- 55554444----2222--------2222333366665555- 3-5-3--2222-------2222 2 3 2
                                                         pm.....
   "sacrifice!"    much faster
 -------------------------------------------------------
--------------------------------------------------------
--------------------------------------------------------
--------------------------------------------------------
 - 5 4 --- 8 7---- 5 4 --- 8 7- 4/5\4 --- 5 4     8 7     5 4            repeat X2
 - 3 2 222 6 5 555 3 2 222 6 5- 2/3\2 --- 3 2 222 6 5 555 3 2  6 5 3 5
                                                             pm.......

 - ----------------------------------------------------------------
 - ------------------------------------------  rhythm behind solo
 ------------------------------------------------------------------
 ----------------------------------------------- 3\ 2    6\5
 - -- 5 4 ----  5 4 ----  5 4 ------------------ 3\ 2    6\5         repeat
 -  2     2   3 --  3 - 2     2  3 2 1 0         1  0    4\3

 guitar only comes in....(cool change up part)
 ---------------------------------------------------------------------------------
 ---------------------------------------------------------------------------------
 ---------------------------------------------------------------------------------
 ---------------------------------------repeat X3------------------------------------------------------
 -------------------------------------------------------6     5              2^3/5/6 5          2^3/5/6 5          2^3/6 10 9 8 6 5             3~ 2~ 1~
 ---4 3 0 4 3 0 1/3   4 3 0 4 3 0 1/2-------------------4 000 3 000 00000000 0^1/3/4 3 00000000 0^1/3/4 3 00000000 0^1/4  8 7 6 4 3
pm  ...........       ...........       

r-----------------------------------------------
------------------------------------------------
------------------------------------------------
 -----------------------------------------------                       repeat X3
4-  -------   2^3/5/6 5    ---   2^3/5/6 5 -----    2^3/6  10 9 8 6 5
 -   00000000 0^1/3/4 3 00000000 0^1/3/4 3 00000000 0^1/4   8 7 6 4 3

 play rhythm 3

 play rhythm 4

                                  End
                          
A different version perhaps

/ The following is the author's own interpretation of the song, to be used -
/ for studying or private use only, removal of any part of this ten line   -
/ header is illegal!!!  Removal of the transcribers name or anything       -
/ relevant to the transcriber is also illegal, as so is the removal of the -
/ place inwhich the tab was downloaded. Publishing as well as printing of  -
/ the tab is illegal without permission of the transcriber and copyright   -
/ owner of the song. Failure to apply to these laws result will in legal   -
/ action from the appropriate parties.                                     -





                  The Lion's Den by Morbid Angel (Covenant)
                                  Joe Harrison
                            
 tuned in Eb
    p.m.......................................................................................................................
 -
 -
 -                               5(harm)                         5(harm)                         5(harm)
 -                                                                                             
 -
 -  6 5 0 6 5 0 3 5  6 5 0 6 5 0    6 5 0 6 5 0 3 5  6 5 0 6 5 0    6 5 0 6 5 0 3 5  6 5 0 6 5 0   6 5 0 6 5 0 3 5 6 5 0 6 5 0


r-
h-
y-
 -                                                                                    (tremelo picking)                      3
1-      5      7      5      2      5      7      8      7-8-7      5      7      5   8 11 10 11                             3
 - 0000 3 0000 5 0000 3 0000 0 0000 3 0000 5 0000 6 0000 5-6-5 0000 3 0000 5 0000 3 0                       repeat X4        1

 
r-
h-
y-
 -                                         (3)
2-
 -    5    5 5 6 3 2~~       2    5 5 6 3 2 1~     four times 

 
 -
 -                                                                  added after 
 -                                                                 second repeat
 - 2                  5      7      8      8                        each time
 - 2                  5      7      8      8   repeat X4                  ^
 - 0 0000000000000000 3 0000 5 0000 6 0000 6                         5   565
                                                                                                          
 
 play rhy 1 (second guitar playing open Eb w/ flange effect swelling up/down slowly)

 play rhy 2 again
  
                double bass only and "Whips crack...centurians......................might be known
 
-           
- 
-                                                                  6    5  5     4  4    3
-                                                                  6    5  5     4  4    3
- 2 4 5                                                       ^    4    3  3     2  2    1
- 0 2 3                                                      0 1 / 4    3  3     2  2    1
 pm.....

 
 play rhy 1 again


r-
h-
y-                                                                  repeat X4
 -
3-       55554444                             55554444
 -   2222        2222333366665555  3 5 3  2222        2222 2 3 2
                                                         pm.....
   "sacrifice!"    much faster
 -
 -
 -
 -
 - 5 4     8 7     5 4     8 7  4/5\4     5 4     8 7     5 4            repeat X2
 - 3 2 222 6 5 555 3 2 222 6 5  2/3\2     3 2 222 6 5 555 3 2  6 5 3 5
                                                             pm.......

 -
 -                                             rhythm behind solo
 -
 -                                               3\ 2    6\5
 -    5 4       5 4       5 4                    3\ 2    6\5         repeat
 -  2     2   3     3   2     2  3 2 1 0         1  0    4\3

 guitar only comes in....(cool change up part)
 -
 -
 -
 -                                      repeat X3
 -                                                      6     5              2^3/5/6 5          2^3/5/6 5          2^3/6 10 9 8 6 5             3~ 2~ 1~
 -  4 3 0 4 3 0 1/3   4 3 0 4 3 0 1/2                   4 000 3 000 00000000 0^1/3/4 3 00000000 0^1/3/4 3 00000000 0^1/4  8 7 6 4 3
pm  ...........       ...........       

r-
h-
y-
 -                                                                     repeat X3
4-            2^3/5/6 5          2^3/5/6 5          2^3/6  10 9 8 6 5
 -   00000000 0^1/3/4 3 00000000 0^1/3/4 3 00000000 0^1/4   8 7 6 4 3

 play rhythm 3

 play rhythm 4 only once then


 -
 -
 -
 -
 -                                                333222111    2
 - 00000000 0^1^3~ 00000000 0^1^3~ 00000000 0^1^3          444 0     repeat to fade out



                                  End
comments
We did not receive enough feedback on this tab! Please rate:
print report bad tab
1 2 3 4 5
2 comments total.
0 reply
_harris wrote on May 15 2011, 09:43 am

almost perfect, great job :)

0 reply
ChuckAleksiJoe wrote on July 6 2012, 03:19 pm

Im boring say that Wrong tuning!

I want to post or [tab]
guest
You may want to rate the tab now too:
select rating
Please do not post tabs as comments. Select "correction" instead!