Oops, an error
Loading. Please wait.

Unholy Blasphemies Tab

1,244 views 1 this week
no commentswrite comment
1 2 3 4 5
please rate
add to favorites
launch autoscroll
font size
0
reset
how to read this tab
guitar tuner
Autoscroll
slow
fast
+/-
esc
set tempo
stop
Help us to improve Ultimate-Guitar.com Take our survey!
×
Author
Morbid Angel - Unholy Blasphemies[Blessed Are the Sick]
Words/Music: Trey Azagthoth, David Vincent/Trey Azagthoth
Copyright (c) Earache Records(1991)

Transcribed By John Nixon [sunioj0369@yahoo.com]

Tuning: Down 1/2 Step[Eb Ab Db Gb Bb eb]

Key:                  Chords:
. = palm-mute
> = partial palm-mute
. in stave = staccato
\ = slide


Riff A x 1
eb|--------------|--------------|--------------|-------------------|
Bb|--------------|--------------|--------------|-------------------|
Gb|--------------|--------------|--------------|-------------------|
Db|------------3-|-2----------3-|------------3-|-2---------------9-|
Ab|-2----------1-|-0----------1-|-4----------1-|-0---------------7-|
Eb|-0-00000000---|---00000000---|-2-00000000---|---00000000-0000---|
      ........       ........       ........       ........ ....

Riff A1 x 2
eb|---------------|---------------|---------------|-----------------|
Bb|---------------|---------------|---------------|-----------------|
Gb|---------------|---------------|---------------|-----------------|
Db|----------3--2-|----------3----|----------3--2-|---------------9-|
Ab|----------1--0-|----------1--4-|----------1--0-|---------------7-|
Eb|-00000000------|-00000000----2-|-00000000------|-00000000-0000---|
    ........        ........        ........        ........ ....

Riff A2 x 1
eb|---------------|---------------|---------------|---------------|
Bb|---------------|---------------|---------------|---------------|
Gb|---------------|---------------|---------------|---------------|
Db|----------3--2-|----------3----|----------3--2-|---------------|
Ab|----------1--0-|----------1--4-|----------1--0-|---------------|
Eb|-00000000------|-00000000----2-|-00000000------|-00000000-0000-|
    ........        ........        ........        ........ ....

Riff B x 1
eb|--------------|-1st, 2nd----|-4th end-----|
Bb|--------------|-3rd ends----|-------------|
Gb|--------------|-------------|----.--------|
Db|--------------|-6--7--------|-6--7--------|
Ab|--------------|-4--5---5--4-|-4--5---5--4-|
Eb|-444444444444-|--------3--2-|--------3--2-|
    >>>>>>>>>>>>

Riff Sect. A x 1
Riff B x 1

Riff C (Solo Rythym) x 2
eb|-------------------|------------------|-------------------|-----------------|
Bb|-------------------|------------------|-------------------|-----------------|
Gb|-------------------|------------------|-------------------|-----------------|
Db|-22225555222278910-|-2222555522220000-|-22225555222278910-|-2222555522222200|
Ab|-------------------|------------------|-------------------|-----------------|
Eb|-------------------|------------------|-------------------|-----------------|

Riff D x 4
eb|---------------|---------------|
Bb|---------------|---------------|
Gb|---------------|---------------|
Db|-------7\6-8\7-|-------6/7-8/9-|
Ab|-0--5--5\4-6\5-|-0--5--4/5-6/7-|
Eb|-0--3----------|-0--3----------|
    .               .

Fill 1 x 1
eb|--------------|-----------|
Bb|--------------|-----------|
Gb|--------------|---------7-|
Db|--------------|-----66667-|
Ab|--------------|-666644445-|
Eb|-444444444444-|-44444444--|
    >>>>>>>>>>>>

Riff Sect. A
Riff B x 1
Riff Sect. A (1st half is a solo rythym)
Riff B x 1
Riff C x 2 (Solo Rythym)
Riff D x 4

END
Suggest correction
Give kudos to tab author, rate the tab!
1 2 3 4 5
comments
print report bad tab
guest
You may want to rate the tab now too:
select rating
Wanna post a correction for this tab? Suggest correction