Oops, an error
Loading. Please wait.

Where The Slime Live Tab

version 3
version 3

Whole song

Interactive

407 views 1 this week
no commentswrite comment
1 2 3 4 5
please rate
add to favorites
launch autoscroll
font size
0
reset
how to read this tab
guitar tuner
Tab Pro tools
  • play this tab
  • loop segment
  • change instrument
  • show fretboard
  • metronome
Autoscroll
slow
fast
+/-
esc
set tempo
stop
Contributor
Tuning: A# D# G# C# F# A# D#

Intro
Riff1
|--------------------------------------------------------------------|
|--------------------------------------------------------------------|
|------------------------------ph---------------------------------5--|
|------------------------------4~~-----------------------------------|
|-2~-3-2-1~--2-1-2-2~-3-2-1~--------2~-3-2--1~--2-1-2-2~-3-2-1~---3~-|
|----3-2-----2-1-2----3-2----2---------3-2------2-1-2----3-2----2----|
     . .     . . .    . .    .         . .      . . .    . .    .

---------------------------------------------------------------------------|
---------------------------------------------------------------------------|
-----------------------------ph--------------------------------------------|
-----------------------------4~~---------------------5-4---4---4-4---5-5-5-|
-2~-3-2-1~-2-1-2-2~-3-2-1~-----------5-3-4-4-4\5-----3-2---2---2-2---3-3-3-|
----3-2----2-1-2----3-2----2-----3~--3-1-2-2-2\3-0-0-----0---0-----0-------|
    . .    . . .    . .    .         . . . . .   . .     .   .     .

---------------------------------------------------------------------------------|
---------------------------------------------------------------------------------|
---------------------------------------------repeat-this-4-times-----------------|
-----------------5-4---4-5-5-5-5-5-5---------------------------------------------|
-5-3-4-4-4\5-----3-2---2-3-3-3-3-3-3---2~-3-2-1~-2-1-2~-3-2-1~---ph----2~-3-2----|
-3-1-2-2-2\3-0-0-----0---------------#----3-2----2-1----3-2----2-2h3-0----3-2...-|
 . . . . .   . .     .                    . .    . .    . .          .    . .

Riff2 (2 times)
|---------------------------------------------------------------------------|
|---------------------------------------------------------------------------|
|---------------------------------------------------------------------------|
|----------------------------ph---------------------------4-5-5/4---4-------|
|-5-4---3-2-2-3-3-4-2-2--2-3-3~--2-5-2-3-3-2-2-3-3-4-2-2--2-3-3/2-5-2-5-4-3-|
|-3-2-0-1-0-0-1-1-2-0-0--------3---3-2-1-1-0-0-1-1-2-0-0----------3---3-2-1-|
      .   . .       . .        .   . . .   . .       . .


|------------------------------------------------------------------------|
|------------------------------------------------------------------------|
|------------------------------ph----------------------------------ph----|
|----------------2-2-----------4~~-------------------2-2-----------4~----|
|-2~-3-2-1~--2-1-2-2--3-2-1~---------2~-3-2--1~--2-1-2-2--3-2-1~---------|
|----3-2-----2-1------3-2----2----3-----3-2------2-1------3-2----2----3~-|
     . .     . .      . .   .           . .      . .      . .    .
Riff3
-----------------------------------------------------------------------------|
-----------------------------------------------------------------------------|
-----------------------------------------------------------------------------|
-----------------5-4---4---4-4---5-5-5-----------------5-4---4-5-5-5-5-5-5-5-|
-5-3-4-4-4\5-----3-2---2---2-2---3-3-3-5-3-4-4-4\5-----3-2---2-3-3-3-3-3-3-3-|
-3-1-2-2-2\3-0-0-----0---0-----0-------3-1-2-2-2\3-0-0-----0-----------------|
 . . . . .   . .     .   .     .       . . . . .   . .     .

---------------------------------------------|
---------------------------------------------|
-------repeat-this-4-times-------------------|
---------------------------------------------|
---2~-3-2-1~-2-1-2~-3-2-1~---ph----2~-3-2----|
-#----3-2----2-1----3-2----2-2h3-0----3-2...-|
      . .    . .    . .          .    . .

|---------------------------------------------------------------------------|
|---------------------------------------------------------------------------|
|---------------------------------------------------------------------------|
|----------------------------ph---------------------------4-5-5/4---4-------|
|-5-4---3-2-2-3-3-4-2-2--2-3-3~--2-5-2-3-3-2-2-3-3-4-2-2--2-3-3/2-5-2-5-4-3-|
|-3-2-0-1-0-0-1-1-2-0-0--------3---3-2-1-1-0-0-1-1-2-0-0----------3---3-2-1-|
      .   . .       . .        .   . . .   . .       . .

Riff4 (4 times)          Riff5    (3 times)    Riff6    (Last Time)
|-----------------------|---------------------|---------------------------|
|-----------------------|---------------------|---------------------------|
|---ph------------------|---------------------|---------------------------|
|---3~------------------|---------------------|---------------------------|
|------6-5--2-------3-2-|---------6-5-----3-2-|-----5---4--2-----2-2-2--5-|
|-1----4-3----2-2-2-----|-1-1-111-4-3-222-----|-222\3-0-2--0-----0-0-0--3-|
       . .    . . .           ...      ...      ...   . .        . . .


Riff7 (4 times) Last Time
----------------|------------------|----------------|
----------------|------------------|----------------|
----------------|------------------|----------------|
----------------|------------------|--------------5-|
-5-6-5-9-8--8-4-|-5-6-5-9-8--8-8-8-|-2-----2-2-2--5-|
-3-4-3-7-6--6-2-|-3-4-3-7-6--6-6-6-|-0-----0-0-0--3-|
 . . .            . . .      . . .         . . .
Riff8 (Solo Rhythm)
|------------------------------------------------------------------------|
|------------------------------------------------------------------------|
|------------------------------------------------------------------------|
|--------------------------------------------------------7-5---5---------|
|------2-2h3p2-----------2-2h3p2-0-----------2-2h3p2-----5-3---3---5---5-|
|-0--0---------0-0--0--0-----------0-0--0--0---------0-0-----0---0-3-0-3-|
     .         . .     .           . .     .         . .     .   .   .

   (8 times)
----------------|
----------------|
----------------|
----------------|
-5-6-5-9-8--8-4-|
-3-4-3-7-6--6-2-|
 . . .

|---------------------------------------------------------------------------------|
|---------------------------------------------------------------------------------|
|---------------------------------------------------------------------------------|
|----------------------------------ph---------------------------4-5-5/4---4-------|
|-4\5-4\5/4-4-3-2-2-3-3-4-2-2--2-3-3~--2-5-4-3-3-2-2-3-3-4-2-2--2-3-3/2-5-2-5-4-3-|
|-2\3-2\3/2-2-1-0-0-1-1-2-0-0--------3---3-2-1-1-0-0-1-1-2-0-0----------3---3-2-1-|
                . .       . .        .   . . .   . .       . .

|-----------------------------------------------------------------|
|-----------------------------------------------------------------|
|------------------------------ph---------------------------------|
|----------------2-2-----------4~~-------------------2-2----------|
|-2~-3-2-1~--2-1-2-2--3-2-1~---------2~-3-2--1~--2-1-2-2--3-2-1~--|
|----3-2-----2-1------3-2----2----3-----3-2------2-1------3-2-----|
     . .     . .      . .    .          . .      . .      . .

End.

Tab Legend

. - palm mute
\ - slide down to
/ - slide up to
h - hammer on
t - tap
ph - pinched harmonic
^ - Hold bend
r release bend
~ - vibrato bend
() - ghost note, sustained note
" - tremolo note
b - Bend
f - full bend
h - half bend
q - quarter bend
^ - Hold bend
r - release bend
comments
We did not receive enough feedback on this tab! Please rate:
print report bad tab
1 2 3 4 5
I want to post or [tab]
guest
You may want to rate the tab now too:
select rating
Please do not post tabs as comments. Select "correction" instead!