Oops, an error
Loading. Please wait.

No Me Encontre Tab

8 views 1 this week
no commentswrite comment
1 2 3 4 5
3 more votes to show rating
add to favorites
launch autoscroll
font size
0
reset
how to read this tab
guitar tuner
Autoscroll
slow
fast
+/-
esc
set tempo
stop
Help us to improve Ultimate-Guitar.com Take our survey!
×
Intro - (Limpio)

    G      A      Bm
E|--------------------------------|
B|--------------------------------|
G|------------------------2-------|
D|----0-2----2-2----4-2-4---4-----|
A|---------0------2---------------|
E|--3-----------------------------| x4

En la tercera vuelta terminas con:

    A
E|--------------------------------|
B|--------------------------------|
G|----------2---------------------|
D|----2-2-2---2-------------------|
A|--0-----------------------------|
E|--------------------------------|

Verso - (Limpio)

    G            A          Bm            A
E|-------------------------------------------------|
B|--------3-----------5-----------7-----------5----|
G|----------4-----------6-----------7-----------6--|
D|------5-----------7-----------9-----------7------|
A|----5-----------7-----------9-----------7--------|
E|--3-----------5-----------7-----------5----------|

Nunca tome el mismo camino,
Involuntaria esa repeticion.
Nunca quise escuchar al destino,
Aveces ya estaba sumergido.

En esta parte del verso entra otra guitarra tocando: 
(con distorsión)

E|-------------------------------------------------|
B|---------------------------------------~---------|
G|--16-16-16-16-16-16-16-16-16-16-16-16-16---------|
D|-------------------------------------------------|
A|-------------------------------------------------|
E|-------------------------------------------------| x8

Aproximadamente 12 veces, y un harmónico en el mismo tono.

Y la solte, deje la solucion de otros
del que estaba junto,
estado llano que me cubrio.
Poco descanse, y cuando voltie

Coro - (Distorsión)

    G       A    Bm
E|--3-3--0-0--2-2--|
B|--3-3--3-3--3-3--|
G|--0-0--3-3--4-4--|
D|--0-0--3-3--4-4--|
A|--2-2--0-0--2-2--|
E|--3-3------------| x6

En la 3era y 6ta vuelta agregar:

    A         Asus
E|--0-0-------0-0--|
B|--3-3-------2-2--|
G|--3-3-------3-3--|
D|--3-3-------3-3--|
A|--0-0-------0-0--|
E|-----------------|

Ya no me encontre donde yo comence,
ya no se cuando fue que cambie.
Pero me desperte, pocos habia despues.
Me aleje y no me contamine.

Verso - (Distorsión media)

Sigo soñando, sigo pensando
Y analizando la continuacion.
Solo un momento que me he tomado
para voltear y ver que nada cambio.

Coro - (Distorsión)

Ya no me encontre donde yo comence,
ya no se cuando fue que cambie.
Pero me desperte, pocos habia despues.
Me aleje y no me contamine.

Agregar guitarra con distorsión:

E|--------|
B|--------|
G|--//11--|
D|--------|
A|--//9---|
E|--------| x4

Verso - (Distorsión media)

Tiempo para sentir el sonido
Que lo persigue la imitacion.
Tiempo que sirve como refugio
Para curar todo lo que escucho.

Coro x2 - (Distorsión)

Solo de guitarra - (Distorsión)

    G     A     Bm       G     A     Bm
E|---------------------------------------|
B|---------------------------------------|
G|--9b11-11r9-9b11-9b11-/14-14-14-11-16--|
D|---------------------------------------|
A|---------------------------------------|
E|---------------------------------------|

    G     A     Bm       A     Asus
E|-------------------------------------------------|
B|--------------------------15-17b19-b19-19r17-15--|
G|--9b11-11r9-9b11-9b11-/16------------------------|
D|-------------------------------------------------|
A|-------------------------------------------------|
E|-------------------------------------------------|
Suggest correction
Give kudos to tab author, rate the tab!
1 2 3 4 5
comments
print report bad tab
guest
You may want to rate the tab now too:
select rating
Wanna post a correction for this tab? Suggest correction