Oops, an error
Loading. Please wait.

Perderme Chords

10 views 1 this week
no commentswrite comment
1 2 3 4 5
3 more votes to show rating
add to favorites
launch autoscroll
font size
0
reset
transpose
0
reset
display chords
guitar tuner
×
Best way to learn
"Perderme"
Autoscroll
slow
fast
+/-
esc
set tempo
stop
Intro

E|------8-5--6------------------|
B|----6--------6----------------|
G|--7---------------------------|
D|------------------------------|
A|------------------------------|
E|------------------------------| x8


F                                Am
Hoy tengo sueño y quiero despertar
         Dm                   A#
Como lo soñaba, como lo soñaba
F                             Am
Y si la vida tiene que cambiar
              Dm                       A#
Tendré que perderte, tendré que perderme
F                   Am
Con dolor y ansiedad
               Dm                       A#
Tendré que perderte, tendré que perderme

E|------8-5------11--------------|
B|----6-------11-----------------|
G|--7---------------------------|
D|------------------------------|
A|------------------------------|
E|------------------------------| x8

F                             Am
Desde el suelo quiero despejar
          Dm                     A#
Tan solo por verte, tan solo por verme
F                          Am
Y si la vida debe continuar
               Dm                       A#
Tendré que perderte, tendré que perderme
F                   Am
Con dolor Y ansiedad
              Dm                        A#
Tendré que perderte, tendré que perderme

E|------8-5------11--------------|
B|----6-------11-----------------|
G|--7---------------------------|
D|------------------------------|
A|------------------------------|
E|------------------------------| x8


Comentarios/Sugerencias a: edgar_mosqueda13@
Suggest correction
Give kudos to tab author, rate the tab!
1 2 3 4 5
comments
print report bad tab
guest
You may want to rate the tab now too:
select rating
Wanna post a correction for this tab? Suggest correction