Oops, an error
Loading. Please wait.

A Life Divided Tab

320 views 3 this week
no commentswrite comment
1 2 3 4 5
please rate
add to favorites
launch autoscroll
font size
0
reset
how to read this tab
guitar tuner
Tab Pro tools
  • play this tab
  • loop segment
  • change instrument
  • show fretboard
  • metronome
Autoscroll
slow
fast
+/-
esc
set tempo
stop
Contributor
Tuning
D A D G B E
Morda - A Life Divided

Drop D


Intro

/--------------------------:
/--------------------------:
/---8-8-7-8-8-8------------:
/---8-8-7-8-8-8------------:
/---6-6-5-6-6-6------------:
/--------------------------:


 P.m.                             
/----------------------------------------------------------:          -/----
/----------------------------------------------------------:          -/----
/----------------------------------------------------------: X2, then -/----
/----------------------------------------------------------:          -/---0
/-------------------6p5-6---------------------6----6p5-6-5-:          -/---0
/-00000000000000000----------0000000000000000--------------:          -/---0



             pm..............           pm.......
/-------------------------------------------------------------:
/-------------------------------------------------------------:
/-------------------------------------------------------------:
/-------------------------------------------------------------: X2 
/-6--6p5-6-5-------------------5-6-8-6-5----------6--6p5-6-5--:
/------------0-0-0-0-0-0-0-0-0------------0-0-0-0-------------:


The verse I don't know



chorus:

 pm.................................................................
/---------------------------------------------------------------------------:
/---------------------------------------------------------------------------:
/---------------------------------------------------------------------------:
/--0-0-1-0-3-0-1--0-0-33-0-11-0-11----0-0-1-0-3-0-1--0-0-33-0-11-0-11----0--:
/--0-0-1-0-3-0-1--0-0-33-0-11-0-11----0-0-1-0-3-0-1--0-0-33-0-11-0-11----0--:
/--0-0-1-0-3-0-1--0-0-33-0-11-0-11----0-0-1-0-3-0-1--0-0-33-0-11-0-11----0--:


The 2nd verse I don't know


bridge:


/-------------------------------------------------:
/-------------------------------------------------:
/-2-----2-----2--------------------5--------------:
/---3-3---3-3---3-2----0-2-3---2-3----2-3-5--3-2--:
/-------------------------------------------------:
/-------------------------------------------------:



/------------------------------:
/------------------------------:
/-2-----2-----2----------------:
/---3-3---3-3---3-2---3--5-3---:
/------------------------------:
/------------------------------:




  pm  ....   ....      ....  ....      ....
/------------------------------------------------------------------:
/------------------------------------------------------------------:
/------------------------------------------------------------------:
/----------------------------------7-------------10----------------:
/---5------5------87-7------7-------8-8------7-8------7-8-10--8-7--:
/-----0000---0000------0000---0000------0000-----------------------:



this is what I know, if you know more, send it to tgitaristje@hotmail.com
comments
We did not receive enough feedback on this tab! Please rate:
print report bad tab
1 2 3 4 5
I want to post or [tab]
guest
You may want to rate the tab now too:
select rating
Please do not post tabs as comments. Select "correction" instead!