Oops, an error
Loading. Please wait.

Myriad Tab

352 views 1 this week
no commentswrite comment
1 2 3 4 5
please rate
add to favorites
launch autoscroll
font size
0
reset
how to read this tab
guitar tuner
Tab Pro tools
  • play this tab
  • loop segment
  • change instrument
  • show fretboard
  • metronome
×
Best way to learn
"Myriad"
Autoscroll
slow
fast
+/-
esc
set tempo
stop
Tuning
D A D G B E
MORDA - Myriad
Album: Azerion

tabbed by prince john / KillingRythm


intro
guitar 1
|----------------------------------------------|
|----------------------------------------------|
|------------5--5------------------------------|
|----7---7-----------8---8---8---5-------------|   8x
|------5---5---5--5----5---5---5---5-----------|
|----------------------------------------------|

guitar 2
|----------------------|
|----------------------|
|----------------------|
|--0~-----6~--0~-------|  4x 
|--0~-----6~--0~-------|
|--0~-----6~--0~-------|


oooooooooooooooooooooooooooooooooooooooooooooooooooooooooooooooooooooooooooooooooooooooooooooooooooooooo


pm    ..........................     .     .............................
|----------------------------------------------------------------------------|
|----------------------------------------------------------------------------|
|----------------------------------------------------------------------------|  
|--1--000--000--000--000--000--0--6--0--1---000--000--000----0000---0000-----|  3x
|--1--000--000--000--000--000--0--6--0--1---000--000--000----0000---0000-----|
|--1--000--000--000--000--000--0--6--0--1---000--000--000----0000---0000-----|
  

oooooooooooooooooooooooooooooooooooooooooooooooooooooooooooooooooooooooooooooooooooooooooooooooooooooooo

verse
pm  .     .  .   .      . .    .            . .   .
|-----------------------------------------------------------------------------------|
|-----------------------------------------------------------------------------------|
|-----------------------------------------------------------------------------------|
|-----------------------------------------------------------------------------------| 3x
|--5--5h6------5---5h6-------5---5h6-5h6--------5---5h6-5h6---8-9-8-6-8-6-----------|
|----0-----0-0---0------0-0----0------------0-0---0---------------------------------|

pm  .     .  .   .      . .    .            . .   .
|-------------------------------------------------------------------|
|-------------------------------------------------------------------|
|-------------------------------------------------------------------|
|-------------------------------------------------------------------| 1x
|--5--5h6------5---5h6-------5---5h6-5h6--------5---5h6-5-----------|
|----0-----0-0---0------0-0----0------------0-0---0-----------------|

    

oooooooooooooooooooooooooooooooooooooooooooooooooooooooooooooooooooooooooooooooooooooooooooooooooooooooo


tapping
guitar 1
|-----------------------------------------------------------------------------------------------------------------------------|
|-----------------------------------------------------------------------------------------------------------------------------|
|---14-7-14-7-14-7-15-7-15-7-15-7-12-7-12-7-12-7-14-7-14-7-14----14-7-14-7-14-7-15-7-15-7-15-7-12-7-12-7-12-7-14-7-14-7-14----|
|-----------------------------------------------------------------------------------------------------------------------------|
|-----------------------------------------------------------------------------------------------------------------------------|
|-----------------------------------------------------------------------------------------------------------------------------|

|-----------------------------------------------------------------------------------------------------------------------------|
|-----------------------------------------------------------------------------------------------------------------------------|
|---10-3-10-3-10-3-9-3-9-3-9-3-12-3-12-3-12-3-9-3-9-3-9-3----10-3-10-3-10-3-9-3-9-3-9-3-10-3-10-3-10-3-9-3-9-3-9--------------|
|-----------------------------------------------------------------------------------------------------------------------------|
|-----------------------------------------------------------------------------------------------------------------------------|
|-----------------------------------------------------------------------------------------------------------------------------|

|-----------------------------------------------------------------------------------------------------------------------------|
|-----------------------------------------------------------------------------------------------------------------------------|
|---14-7-14-7-14-7-15-7-15-7-15-7-19-7-19-7-19-7-15-7-15-7-15-7--14-7-14-7-14-7-15-7-15-7-15-7-12-7-12-7-12-7-14-7-14-7-14----|
|-----------------------------------------------------------------------------------------------------------------------------|
|-----------------------------------------------------------------------------------------------------------------------------|
|-----------------------------------------------------------------------------------------------------------------------------|


|-----------------------------------------------------------------------------------------------------------------------------|
|-----------------------------------------------------------------------------------------------------------------------------|
|---10-3-10-3-10-3-9-3-9-3-9-3-12-3-12-3-12-3-9-3-9-3-9-3----10-3-10-3-10-3-9-3-9-3-9-3-10-3-10-3-10-3-9-3-9-3-9--------------|
|-----------------------------------------------------------------------------------------------------------------------------|
|-----------------------------------------------------------------------------------------------------------------------------|
|-----------------------------------------------------------------------------------------------------------------------------|


guitar 2
|---------------------------|
|---------------------------|
|---------------------------|
|--0---0---3--2---3--2---0--| 2x
|--0---0---3--2---3--2---0--|
|--0---0---3--2---3--2---0--|



oooooooooooooooooooooooooooooooooooooooooooooooooooooooooooooooooooooooooooooooooooooooooooooooooooooooo




break
pm............................................................
|---------------------------------------------------------------------|
|---------------------------------------------------------------------|
|---------------------------------------------------------------------|  
|--000--000~-----000--000~--------000--000~-----000--000~----0--6\----|
|--000--000~-----000--000~--------000--000~-----000--000~----0--6\----|
|--000--000~-----000--000~--------000--000~-----000--000~----0--6\----|
  


pm......................    .   .
|-------------------------------------------|
|-------------------------------------------|
|-------------------------------------------|  
|--000--000-----000--000--------------------|  4x
|--000--000-----000--000------6---5\3-------|
|--000--000-----000--000----0---0-----------|




oooooooooooooooooooooooooooooooooooooooooooooooooooooooooooooooooooooooooooooooooooooooooooooooooooooooo



verse 2
pm   .     . .   .      . .   .
|---------------------------------------|
|---------------------------------------|
|---------------------------------------|  4x
|---------------------------------------|
|--5--5h6------5---5h6------6---5\3-----|
|----0-----0-0---0------0-0---0---------|

pm  .     .  .   .      . .    .            . .   .
|-----------------------------------------------------------------------------------|
|-----------------------------------------------------------------------------------|
|-----------------------------------------------------------------------------------|
|-----------------------------------------------------------------------------------| 1x
|--5--5h6------5---5h6-------5---5h6-5h6--------5---5h6-5h6---8-9-8-6-8-6-----------|
|----0-----0-0---0------0-0----0------------0-0---0---------------------------------|

pm  .     .  .   .      . .    .            . .   .
|-------------------------------------------------------------------|
|-------------------------------------------------------------------|
|-------------------------------------------------------------------|
|-------------------------------------------------------------------| 1x
|--5--5h6------5---5h6-------5---5h6-5h6--------5---5h6-5-----------|
|----0-----0-0---0------0-0----0------------0-0---0-----------------|


oooooooooooooooooooooooooooooooooooooooooooooooooooooooooooooooooooooooooooooooooooooooooooooooooooooooo



tapping
guitar 1
|-----------------------------------------------------------------------------------------------------------------------------|
|-----------------------------------------------------------------------------------------------------------------------------|
|---14-7-14-7-14-7-15-7-15-7-15-7-12-7-12-7-12-7-14-7-14-7-14----14-7-14-7-14-7-15-7-15-7-15-7-12-7-12-7-12-7-14-7-14-7-14----|
|-----------------------------------------------------------------------------------------------------------------------------|
|-----------------------------------------------------------------------------------------------------------------------------|
|-----------------------------------------------------------------------------------------------------------------------------|

|-----------------------------------------------------------------------------------------------------------------------------|
|-----------------------------------------------------------------------------------------------------------------------------|
|---10-3-10-3-10-3-9-3-9-3-9-3-12-3-12-3-12-3-9-3-9-3-9-3----10-3-10-3-10-3-9-3-9-3-9-3-10-3-10-3-10-3-9-3-9-3-9--------------|
|-----------------------------------------------------------------------------------------------------------------------------|
|-----------------------------------------------------------------------------------------------------------------------------|
|-----------------------------------------------------------------------------------------------------------------------------|

|-----------------------------------------------------------------------------------------------------------------------------|
|-----------------------------------------------------------------------------------------------------------------------------|
|---14-7-14-7-14-7-15-7-15-7-15-7-19-7-19-7-19-7-15-7-15-7-15-7--14-7-14-7-14-7-15-7-15-7-15-7-12-7-12-7-12-7-14-7-14-7-14----|
|-----------------------------------------------------------------------------------------------------------------------------|
|-----------------------------------------------------------------------------------------------------------------------------|
|-----------------------------------------------------------------------------------------------------------------------------|


|-----------------------------------------------------------------------------------------------------------------------------|
|-----------------------------------------------------------------------------------------------------------------------------|
|---10-3-10-3-10-3-9-3-9-3-9-3-12-3-12-3-12-3-9-3-9-3-9-3----10-3-10-3-10-3-9-3-9-3-9-3-10-3-10-3-10-3-9-3-9-3-9--------------|
|-----------------------------------------------------------------------------------------------------------------------------|
|-----------------------------------------------------------------------------------------------------------------------------|
|-----------------------------------------------------------------------------------------------------------------------------|


guitar 2
|---------------------------|
|---------------------------|
|---------------------------|
|--0---0---3--2---3--2---0--| 2x
|--0---0---3--2---3--2---0--|
|--0---0---3--2---3--2---0--|

 
oooooooooooooooooooooooooooooooooooooooooooooooooooooooooooooooooooooooooooooooooooooooooooooooooooooooo


break
pm................................
|-----------------------------------------|
|-----------------------------------------|
|-----------------------------------------|  
|-----000--000~-----000--000~----0--6\----|
|-----000--000~-----000--000~----0--6\----|
|-----000--000~-----000--000~----0--6\----|
  


pm......................    .   .
|-------------------------------------------|
|-------------------------------------------|
|-------------------------------------------|  
|--000--000-----000--000--------------------|  4x
|--000--000-----000--000------6---5\3-------|
|--000--000-----000--000----0---0-----------|

oooooooooooooooooooooooooooooooooooooooooooooooooooooooooooooooooooooooooooooooooooooooooooooooooooooooo


picking
|---------------------------|
|---------------------------|
|---------------------------|
|---------------------------| 2x
|---------------------------|
|--0*---3*---5*---0*--------|

(dont know the second guitar)



and again..
pm............................................................
|---------------------------------------------------------------------|
|---------------------------------------------------------------------|
|---------------------------------------------------------------------|  
|--000--000~-----000--000~--------000--000~-----000--000~----0--6\----|
|--000--000~-----000--000~--------000--000~-----000--000~----0--6\----|
|--000--000~-----000--000~--------000--000~-----000--000~----0--6\----|



pm......................    .   .
|-------------------------------------------------|------------|
||------------------------------------------------|------------|
|-------------------------------------------------|------------|
|--000--000-----000--000----------------3times----|--000--000--|
|--000--000-----000--000------6---5\3-------------|--000--000--|
|--000--000-----000--000----0---0-----------------|--000--000--|




thats it, have fun.




corrections to converge@gmx.de
comments
We did not receive enough feedback on this tab! Please rate:
print report bad tab
1 2 3 4 5
I want to post or [tab]
guest
You may want to rate the tab now too:
select rating
Please do not post tabs as comments. Select "correction" instead!