Oops, an error
Loading. Please wait.

Sudden Tears Fall Tab

320 views 1 this week
3 commentsread comments
1 2 3 4 5
please rate
add to favorites
launch autoscroll
font size
0
reset
how to read this tab
guitar tuner
Autoscroll
slow
fast
+/-
esc
set tempo
stop
Help us to improve Ultimate-Guitar.com Take our survey!
×
Author
Tuning
D A D G B E
Morda - Sudden tears fall


3rd,4th and 5th time without 5-3-4-5
E|-------------------------------------------------------|
B|-------------------------------------------------------|
G|-------------------------------------------------------|
D|--5-5-------------5-5------------1-1--------3-3--------|
A|--5-5---5-3-4-3---5-5---5-3-4-3--1-1--6-5-3-3-3-4-3-2--|
D|--5-5-------------5-5------------1-1--------3-3--------|


E|---------------------------------------------|
B|---------------------------------------------|
G|---------------------------------------------|
D|---------5-------5----1-1---------3-3--------|
A|---------5-------5----1-1--6-5-3--3-3--4-3-2-|
D|---55555-5--5555-5----1-1---------3-3--------|


I’m not sure of this, but it’s something like this
E|------------------------------------------------------------------------|
B|------------------------------------------------------------------------|
G|------------------------------------------------------------------------|
D|------------------------------------------------------------------------| 
A|8888-5555-7777-4444--8888-5555-7777-44444-88888888888888-5555-7777-4444-| 
D|------------------------------------------------------------------------|

    P.M...................................
E|------------------------------------------|
B|------------------------------------------|
G|------------------------------------------|
D|--0-00--0-00--0-00--0-00---1-11--1-11--3--|x4
A|--0-00--0-00--0-00--0-00---1-11--1-11--3--|
D|--0-00--0-00--0-00--0-00---1-11--1-11--3--|

E|----------------------------------------------------------|
B|----------------------------------------------------------|
G|0--0-2--2-3---3-2-0---------------------------------------|
D|--0----0-----0--------3-------3--3------------------------|
A|---------------------------1-1-1----1-----------3-1-0-----|
D|------------------------------------------1-1-1-----------|



    P.M...................................
E|------------------------------------------|
B|------------------------------------------|
G|------------------------------------------|
D|--0-00--0-00--0-00--0-00---1-11--1-11--3--|x4
A|--0-00--0-00--0-00--0-00---1-11--1-11--3--|
D|--0-00--0-00--0-00--0-00---1-11--1-11--3--|




This is all that I know, if you have corrections send it to tgitaristje@hotmail.com

www.morda.be
Suggest correction
What's this?
You can suggest a correction to this tab. Community and Mods will review your correction and vote to approve or reject it.
comments
We did not receive enough feedback on this tab! Please rate:
print report bad tab
1 2 3 4 5
3 comments total.
+1 reply
Become One 20 wrote on January 5 2008, 07:27 am

I don't think you've got it right in the intro, you must hear that yourself!
it's more like
this:
E|-------------------------------------------------------|
B|---------------------------------------------------
----|
G|-------------------------------------------------------|
D|--5-5-------------5-5------------1-1--------3-3----
----|
A|--5-5---5---------5-5---5--------1-1--6-5---3-3-3------|
D|--5-5-----8-7-3---5-5-----8-7-3--1-1------8-3-3---7
-3--|

0 reply
sveinms 102 wrote on September 23 2008, 04:15 pm

E|---------------------------------------------------------|
B|---------------------------------------------------------|
G|---------------------------------------------------------|
D|--5----------------5---------------1-1--------3-3--------|
A|--5-----5----------5-----5---------1-1--6-5---3-3--------|
D|--5--5-7---7-8-3---5--5-7--7-8--3--1-1------8-3-3--8-7-3-|


i made the tab and i know it's wrong... no i think it's more like this...

0 reply
sveinms 102 wrote on September 23 2008, 04:17 pm

E|---------------------------------------------------------|
B|---------------------------------------------------------|
G|---------------------------------------------------------|
D|--5----------------5---------------1-1--------3-3--------|
A|--5-----5----------5-----5---------1-1--6-5---3-3--------|
D|--5--5-7---7-8-3---5--5-7--7-8--3--1-1------8-3-3--8-7-3-|


i made the tab and i know it's wrong... now i think it's played like this...

guest
You may want to rate the tab now too:
select rating
Please do not post tabs as comments. Select "correction" instead!