Oops, an error
Loading. Please wait.

The Axis Bass Tab

version 1
version 1

Whole song

Interactive

158 views 1 this week
no commentswrite comment
1 2 3 4 5
please rate
add to favorites
launch autoscroll
font size
0
reset
guitar tuner
Autoscroll
slow
fast
+/-
esc
set tempo
stop
Help us to improve Ultimate-Guitar.com Take our survey!
×
Author
Tuning
D A D G B E
Morda - the axis

~ - let ring
/ - slide 

drop D

comes in at 00.30

|--------------| 2 times
|--------------|
|--------------|
|-1~~1~~1~~1111|

|----------------------------------|
|----------------------------------|
|----------------------------------|
|3333333333333333333333333/5555/777|

|-------------| 2 times
|-------------|
|-------------|
|1~~1~~1~~1111|

|---------------------------------|
|---------------------------------|
|---------------------------------|
|333333333333333333333333/5555/777|

|---------------------------| 2 times
|---------------------------|
|---------------------------|
|1-1-1-1-1-1-1-1-1-1-1-1-1-1|

|----------------------------------|
|----------------------------------|
|----------------------------------|
|3333333333333333333333333/5555/777|


|---------------------------| 2 times
|---------------------------|
|---------------------------|
|1-1-1-1-1-1-1-1-1-1-1-1-1-1|

|----------------------------------|
|----------------------------------|
|----------------------------------|
|3333333333333333333333333/5555/777|


|---------------------------| 2 times
|---------------------------|
|---------------------------|
|1-1-1-1-1-1-1-1-1-1-1-1-1-1|

|----------------------------------|
|----------------------------------|
|----------------------------------|
|3333333333333333333333333/5555/777|


|---------------------------| 2 times
|---------------------------|
|---------------------------|
|1-1-1-1-1-1-1-1-1-1-1-1-1-1|

|----------------------------------|
|----------------------------------|
|----------------------------------|
|3333333333333333333333333/5555/777|


|-------------| 6 times
|-------------|
|-------------|
|1~~1~~1~~1111|


corrections send to dirt_can@hotmail.com
Suggest correction
Give kudos to tab author, rate the tab!
1 2 3 4 5
comments
print report bad tab
guest
You may want to rate the tab now too:
select rating
Wanna post a correction for this tab? Suggest correction