Oops, an error
Loading. Please wait.

Do You Remember Bass Tab

version 1
version 1

Whole song

Interactive

22 views 3 this week
no commentswrite comment
1 2 3 4 5
3 more votes to show rating
add to favorites
launch autoscroll
font size
0
reset
guitar tuner
Autoscroll
slow
fast
+/-
esc
set tempo
stop
Help us to improve Ultimate-Guitar.com Take our survey!
×
Author
Difficulty
Tuning
novice
D# G# C# F# A# D#
Tabbed By:Josecar
Album:What's Left of Me
Band:More Than Life
Song:Do you remember
Date:2014
My YT Channel Of Bass Cover:https://www.youtube.com/channel/UCg9O-Rug1KEvY3jmKHY8R-Q
(Write me a coment if you want any bass tab)

[Intro]
F#|-----------------|
C#|-----------------|
G#|------------7----|X6
D#|--3----5---------|

[Verse]
F#|-----------------|
C#|-----------------|
G#|------------7----|X4
D#|--3----5---------|

[Chorus]
F#|----------------------------------|-----------------------------------------|
C#|----------------------------------|-----------------------------------------|
G#|----------------------------------|--7-7-7-7-7-7-7-7-7-7-7-7-7-7-7-7--------|X4
D#|--3-3-3-3-3-3-3-3--5-5-5-5-5-5-5-5|-----------------------------------------|

[Outro]
F#|---------------|
C#|---------------|
G#|--7--5---------|
D#|--------3--5---|

F#|---------------|
C#|---------------|
G#|--7--5--2--3---|
D#|---------------|

F#|---------------|
C#|---------------|
G#|--7--5---------|
D#|--------3--5---|

F#|---------------|
C#|---------------|
G#|--7--5--2--3---|
D#|---------------|

[Outro 2]
F#|----------------------------------|-------------------------------------|
C#|----------------------------------|-------------------------------------|
G#|--7-7-7-7-7-7-7-7--5-5-5-5-5-5-5-5|-------------------------------------|
D#|----------------------------------|--3-3-3-3-3-3-3-3--5-5-5-5-5-5-5-5---|


F#|----------------------------------|-------------------------------------|
C#|----------------------------------|-------------------------------------|
G#|--7-7-7-7-7-7-7-7--5-5-5-5-5-5-5-5|--2-2-2-2-2-2-2-2--3-3-3-3-3-3-3-3---|
D#|----------------------------------|-------------------------------------|

F#|----------------------------------|-------------------------------------|
C#|----------------------------------|-------------------------------------|
G#|--7-7-7-7-7-7-7-7--5-5-5-5-5-5-5-5|-------------------------------------|
D#|----------------------------------|--3-3-3-3-3-3-3-3--5-5-5-5-5-5-5-5---|


F#|----------------------------------|-------------------------------------|
C#|----------------------------------|-------------------------------------|
G#|--7-7-7-7-7-7-7-7--5-5-5-5-5-5-5-5|--2-2-2-2-2-2-2-2--3-3-3-3-3-3-3-3---|
D#|----------------------------------|-------------------------------------|

[Chorus 2]
F#|-----------------------------------|----------------------------------------|
C#|-----------------------------------|----------------------------------------|
G#|-----------------------------------|-7-7-7-7-7-7-7-7-7-7-7-7-7-7-7-7--------| X4
D#|--3-3-3-3-3-3-3-3--5-5-5-5-5-5-5-5-|----------------------------------------|

[End]
F#|-----------------|
C#|-----------------|
G#|------------7----|X2
D#|--3----5---------|




************************************

| x   Repeat
| g   Grace note
| (n) Ghost note
| h   Hammer-on
| p   Pull-off
| r   Release
| >   Accented note
| t   Tapping
| b   Bend
| br  Bend release
| pb  Pre-bend
| pbr Pre-bend release
| /   Slide up
| \   Slide down
| ~   Vibrato
| s   Slap
| P   Pop
| PM  Palm mute
| TR  Trill
| N   Tremolo

************************************
Suggest correction
Give kudos to tab author, rate the tab!
1 2 3 4 5
comments
print report bad tab
guest
You may want to rate the tab now too:
select rating
Wanna post a correction for this tab? Suggest correction