Oops, an error
Loading. Please wait.

Body Work Tab

2,269 views 1 this week
1 commentread comment
1 2 3 4 5
excellent!
x 3
add to favorites
launch autoscroll
font size
0
reset
how to read this tab
guitar tuner
Autoscroll
slow
fast
+/-
esc
set tempo
stop
Help us to improve Ultimate-Guitar.com Take our survey!
×
Author
Difficulty
novice
Great Song!

Artist: Morgan Page (feat. Tegan & Sara)
Song: Body Work
Album: Single
Tuning: Standard

Intro

e |-1----0----3------------|
B |-1----1----3------------|
G |-2----2----4------------|
D |-3----2----5------------|
A |-3----0----5------------|    
E |-1----x----3----7\------|


Verse 1

e |-1----0----3------------|
B |-1----1----3------------|
G |-2----2----4------------|
D |-3----2----5------------|
A |-3----0----5------------|    
E |-1----x----3------------|

I still wanna see you tonight
Will you be around?
I still wanna get you alone
Will you be around? (be around, be around)

Interlude

e |-1----0----3------------|
B |-1----1----3------------|
G |-2----2----4------------|
D |-3----2----5------------|
A |-3----0----5------------|    
E |-1----x----3------------|

Can I take all the steps that I’m planning tonight
Without risking it all?
Can I make all the moves I’m making tonight
Without hurting you bad


Chorus

e |--1----0----3-----------|
B |--1----1----3-----------|
G |--2----0----4-----------|
D |--3----2----5-----------|
A |--3----3----5-----------|    
E |--1----x----3-----------|

You do your body work
I feel my pulse working overtime
You do your body work
I feel my pulse working overtime
I get shy in these lights 
I feel your body doin overtime
I get shy in these lights 
I feel my pulse doin overtime


Verse 2
I won’t give you what’s right
You still come around
I won’t put up a fight
You still come around (Come around, come around)


Interlude 

Chorus

Bridge

e |--1----0----0-----------|
B |--1----1----0-----------|
G |--2----2----0-----------|
D |--3----2----2-----------|
A |--3----0----2-----------|    
E |--1----x----0-----------|

You gotta fine form
Nobody’s sayin no

e |--1----0----3-----------|
B |--1----1----3-----------|
G |--2----2----4-----------|
D |--3----2----5-----------|
A |--3----0----5-----------|    
E |--1----x----3-----------|

Walkin a fine line
Without hurting you bad

Interlude

Chorus

Lead Guitar Outro

e |---------------------|
B |---------------------|
G |---7--5--7---5--7--5-|
D |---------------------|
A |---------------------|       
E |---------------------|
Suggest correction
Give kudos to tab author, rate the tab!
1 2 3 4 5
comments
print report bad tab
1 comment total.
0 reply
Aznangel 130 wrote on February 10 2015, 10:25 pm

Thanks for the upload, although while you could play the verse/interlude with your chords, the synth sounds like it has four chords going downward, like Am, GM. Em, FM
e|-------------
B|-------------
G|-------------
D|-7--5--2--3--
A|-7--5--2--3--
E|-5--3--0--1--

Let me know what you think!

guest
You may want to rate the tab now too:
select rating
Wanna post a correction for this tab? Suggest correction