Oops, an error
Loading. Please wait.

The Travel tab

by Morgoth
154 views 1 this week
no commentswrite comment
1 2 3 4 5
3 more votes to show rating
add to favorites
×
Save as Personal and add changes to this tab that will be seen only by you. Learn more ›
×
You can save this tab as Personal to edit and correct it or add notes. All changes will be seen only by you. Learn more »
launch autoscroll
font size
0
reset
how to read this tab
guitar tuner
edit
Autoscroll
slow
fast
+/-
esc
set tempo
stop
Artist: Morgoth
Song: The Travel
Album: Resurrection Absurd
Year: 1989
Tabbed by: antichris666

Tuning: D standard

 Riff A (Repeat 6 times)
|-------------------------------------------------|
|-------------------------------------------------|
|-------------------------------------------------|
|-------------------------------------------------|
|-------------------------------------------------|
|-0-0-0-0-0-0-3-3-3-3-3-3-2-2-2-2-2-2-5-5-5-5-5-5-|
  . . . . . . . . . . . . . . . . . . . . . . . . 

|-------------------------------------------------|
|-------------------------------------------------|
|-------------------------------------------------|
|-------------------------------------------------|
|-------------3-3-3-3-----------------2-2-2-2-----|
|-1-1-1-1-1-1---------1-1-0-0-0-0-0-0---------1-1-|
  . . . . . . . . . . . . . . . . . . . . . . . . 



 Riff B (Repeat 2 times)
|---------------------------------------------------------------------------------|
|---------------------------------------------------------------------------------|
|---------------------------------------------------------------------------------|
|---------------------------------------------------------------------------------|
|---------------------------------6-6-6-6-----------------------------------4-5-4-|
|-4-4-4-4-4-4-7-4-4-4-4-6-4-4-4-4---------3-3-3-3-3-3-3-3-3-3-3-3-3-3-3-3-3-2-3-2-|
  . . . . . . . . . . . . . . . . . . . . . . . . . . . . . . . . . . . . . 

|-----------------------------------------------------------------------------------------|
|-----------------------------------------------------------------------------------------|
|-----------------------------------------------------------------------------------------|
|-----------------------------------------------------------------8-8-7-7-5-5-------------|
|---------------------------------6-6-6-6-5-5-5-5-5-5-5-5-5-5-5-5-------------8-8-7-7-5-5-|
|-4-4-4-4-4-4-7-4-4-4-4-6-4-4-4-4---------------------------------------------------------|
  . . . . . . . . . . . . . . . . . . . . . . . . . . . . . . . . . . . . . . . . . . . . 



 Gtr I
|-----------------------------------------------------------------|
|-----------------------------------------------------------------|
|-----------------------------------------------------------------|
|-----------------------------------------------------------------|
|-------------5-5-4-4-------------------------5-5-4-4-------------|
|-0-0-5-5-6-6---------5-5-6-6-5-5-0-0-5-5-6-6---------5-5-6-6-5-5-|
  . . . . . . . . . . . . . . . . . . . . . . . . . . . . . . . .  
 
 Gtr II  
|-----------------------------------------------------------------|
|-----------------------------------------------------------------|
|-----------------------------------------------------------------|
|-----------------------------------------------------------------|
|-2-------------------------------2-------2-------2-------2-------|
|-0-------------------------------0-------0-------0-------0-------|
 


 Riff C (Repeat 2 times)
|-----------------------------------------------------------------|
|-----------------------------------------------------------------|
|-----------------------------------------------------------------|
|-----------------------------------------------------------------|
|-------------5-5-4-4-------------------------5-5-4-4-------------|
|-0-0-5-5-6-6---------5-5-6-6-5-5-0-0-5-5-6-6---------5-5-6-6-5-5-|
  . . . . . . . . . . . . . . . . . . . . . . . . . . . . . . . .  
 

 Riff D 
|-----------------------------------------------------------------|
|-----------------------------------------------------------------|
|-----------------------------------------------------------------|
|-------------5-5-4-4-------------------------5-5-4-4-------------|
|-0-0-5-5-6-6---------5-5-6-6-5-5-0-0-5-5-6-6---------5-5-6-6-5-5-|
|-----------------------------------------------------------------|
  . . . . . . . . . . . . . . . . . . . . . . . . . . . . . . . . 
  

 Riff E (Repeat 2 times)
|-----------------------------------------------------------------|
|-----------------------------------------------------------------|
|-----------------------------------------------------------------|
|---------------------------------------------------------8-8-7-7-|
|-------------------------------------------------5-5-5-5---------|
|-4-4-6-4-7-4-6-4-3-3-3-3-3-3-3-3-4-4-6-4-7-4-6-4-----------------|
  . . . . . . . . . . . . . . . . . . . . . . . . . . . . . . . .  


 Riff F (Repeat 3 times)
|---------------------------------------------------------------------------------------------|
|---------------------------------------------------------------------------------------------|
|---------------------------------------------------------------------------------------------|
|---------------------------------------------------------------------------------------------|
|---------------------------------------------------------------------------------------------|
|-1-1-1-1-1-1-1-1-1-1-0-0-8-8-8-8-8-8-1-1-1-1-1-1-0-0-0-0-0-0-0-0-0-0-3-3-3-3-3-3-2-2-2-2-2-2-|
  . . . . . . . . . . . . . . . . . . . . . . . . . . . . . . . . . . . . . . . . . . . . . . 


 Riff G
|-------------------------------------------------------------------------|
|-------------------------------------------------------------------------|
|-------------------------------------------------------------------------|
|-------------------------------------------------------------------------|
|-------------------------------------------------------------------------|
|-1-1-1-1-1-1-1-1-1-1-0-0-8-8-8-8-8-8-1-1-1-1-1-1-0-0-0-0-0-0-0-0-0-0-0-0-|
  . . . . . . . . . . . . . . . . . . . . . . . . . . . . . . . . . . . . 


 Riff H
|-------------------------------------------------|
|-------------------------------------------------|
|-------------------------------------------------|
|-------------1-1-1-1-1-1-2-2-2-2-2-2-2-2-2-2-0-0-|
|-2-2-2-2-2-2-------------------------------------|
|-------------------------------------------------|
  . . . . . . . . . . . . . . . . . . . . . . . .

|-------------------------------------------------|
|-------------------------------------------------|
|-------------------------------------------------|
|-1-1-1-1-1-1-------------------------------------|
|-------------1-1-1-1-1-1-2-2-2-2-2-2-2-2-2-2-2-2-|
|-------------------------------------------------|
  . . . . . . . . . . . . . . . . . . . . . . . .


 Riff I (Repeat 2 times)
|-------------------------------------------------|
|-------------------------------------------------|
|-------------------------------------------------|
|-7-7-7-7-7-7-------------------------------------|
|-------------6-6-6-6-6-6-5-5-5-5-5-5-5-5-5-5-0-0-|
|-------------------------------------------------|
  . . . . . . . . . . . . . . . . . . . . . . . . 

|-------------------------------------------------|
|-------------------------------------------------|
|-------------------------------------------------|
|-------------------------------------------------|
|-3-3-3-3-3-3-------------------------------------|
|-------------1-1-1-1-1-1-0-0-0-0-0-0-0-0-0-0-0-0-|
  . . . . . . . . . . . . . . . . . . . . . . . . 


 Riff J (Repeat 6 times)
|-------------------------------------------------|
|-------------------------------------------------|
|-------------------------------------------------|
|-------------------------------------------------|
|-------------------------------------------------|
|-0-0-0-0-0-0-0-0-0-0-0-0-3-3-3-3-3-3-3-3-3-3-3-3-|
  . . . . . . . . . . . . . . . . . . . . . . . .  

|-------------------------------------------------|
|-------------------------------------------------|
|-------------------------------------------------|
|-------------------------------------------------|
|-------------------------------------------------|
|-1-1-1-1-1-1-1-1-1-1-1-1-4-4-4-4-4-4-4-4-4-4-4-4-|
  . . . . . . . . . . . . . . . . . . . . . . . . 


 Solo
|-------------------------------------------------------|
|-------------------------------------------------------|
|---------------------------------------------------9-9-|
|---------------7-7-9-9---------------------7-7-9-9-----|
|-7-7-9-9-10-10---------10-10-7-7-9-9-10-10-------------|
|-------------------------------------------------------|
  . . . . . . . . . . . . . . . . . . . . . . . . . . . 

|------------------------------------12-|
|---------------------------------------|
|-10-10-9-9-7-7---------------7-9-10----|
|---------------10-10-9-9-7-7-----------|
|---------------------------------------|
|---------------------------------------|
  .  .  . . . . .  .  . . . . 

|-12-12-14-12-15-12-17-12-15-12-14-12-|-12-12-14-12-15-12-17-12-15-12-14-12-|
|-------------------------------------|-------------------------------------|
|-------------------------------------|-------------------------------------|
|-------------------------------------|-------------------------------------|
|-------------------------------------|-------------------------------------|
|-------------------------------------|-------------------------------------|
                  
|-12-12-14-12-15-12-17-12-15-12-14-12---------------12-|
|--------------------------------------12---14--15-----|
|------------------------------------------------------|
|------------------------------------------------------|
|------------------------------------------------------|
|------------------------------------------------------|
 
|---------------------------------------------|
|---------------------------------------------|
|-10-9-7--------------------------------------|
|--------10-9-7--------7----------------------|
|---------------7-9-10---10-9-7-7-------------|
|---------------------------------10-10-9-9-7-|
  .  . . .  . . . . .  . .  . . . .  .  . . 

|---------------------------------------------------------------------|
|---------------------------------------------------------------------|
|---------------------------------------------------9-9-10-10-9-9-7-7-|
|---------------7-7-9-9---------------------7-7-9-9-------------------|
|-7-7-9-9-10-10---------10-10-7-7-9-9-10-10---------------------------|
|---------------------------------------------------------------------|
  . . . . .  .  . . . . .  .  . . . . .  .  . . . . . . .  .  . . . .

|----------------------12-|
|-------------------------|
|---------------7-9-10----|
|-10-10-9-9-7-7-----------|
|-------------------------|
|-------------------------|
  .  .  . . . .     


 Gtr I (Repeat 2 times)
|---------------------------------------------------|
|---------------------------------------------------|
|---------------------------------------------------|
|-0-----2-1---0-----2-1---0-----2-1---0-----2-1---0-|
|---2-3-----2---2-3-----2---2-3-----2---2-3-----2---|
|---------------------------------------------------|
 
 Gtr II (Repeat 2 times)
|---------------------------------------------------|
|---------------------------------------------------|
|---------------------------------------------------|
|-7-----------------------7-------------------------|
|-5-----------------------5-------------------------|
|---------------------------------------------------|


 Riff K
|-------------------------------------------------|
|-------------------------------------------------|
|-------------------------------------------------|
|-------------------------------------------------|
|-----------2-----------2-----------2-----------2-|
|-0-2-0-2-3---0-2-0-2-3---0-2-0-2-3---0-2-0-2-3---|


 Riff L (Repeat 2 times)
|-----------------------------------------------------------------|
|-----------------------------------------------------------------|
|-----------------------------------------------------------------|
|-----------------------------------------------------------------|
|-----------------------------------------------------------------|
|-0-0-7-7-8-8-7-7-0-0-7-7-8-8-7-7-0-0-0-0-0-0-0-0-0-0-0-0-0-0-0-0-|
  . . . . . . . . . . . . . . . . . . . . . . . . . . . . . . . . 

|---------------------------------------------------------|
|---------------------------------------------------------|
|---------------------------------------------------------|
|---------------------------------------------------------|
|---------------------------------------------------------|
|-0-0-7-7-8-8-7-7-0-0-7-7-8-8-7-7-1-1-3-3-4-4-1-1-3-3-4-4-|    
  . . . . . . . . . . . . . . . . . . . . . . . . . . . . 


 End
|------|
|------|
|------|
|------|
|------|
|-2----|
|-0----|


 pine away in this cold box
 penumbra passing by
 this rookery of undead souls
 romanticize the truth
 save me from what is left to be
 the tartness of my death
 save me from what is left behind
 the underground excess
 select more bodies for this game
 unconscious they will be
 dedication of this life
 the tourist will be in your mind
 minds are lost in
 counterclaims of insanity
 death unfolds his wings
 despicable agony
 your first self
 forever gone
 now respect the last words
 you said
 frozen into this adorable block
 structure of mind decays
 still waiting for a new life
 to use more morbid ways
 twisted, that limbs of
 this passed life away
 cut the strings of death
 to stridency
 born into a new world
 filled with death
 now you can't escape you
 have to rest


************************************

| .   palm mute
| /   slide up
| \   slide down
| h   hammer-on
| p   pull-off
| ~   vibrato
| +   harmonic
| x   Mute note
| b   Bend
| pb  Pre-bend
| br  Bend release
| pbr Pre-bend release
| brb Bend release bend

************************************

            
            
Suggest correction
Creating personal tab
Creating personal tab
You can edit any tab online and save it as your Personal.

You can edit, replace or remove any tab part or add personal notes – all changes will be seen only by you.

Personal tabs can be accessed anytime from any device, even offline.
Learn more »
Give kudos to tab author, rate the tab!
1 2 3 4 5
comments
print report bad tab
guest
You may want to rate the tab now too:
select rating
Wanna post a correction for this tab? Suggest correction