Oops, an error
Loading. Please wait.

Esperanza tab

1,876 views 81 this week
2 commentsread comments
1 2 3 4 5
x 5
add to favorites
×
Save as Personal and add changes to this tab that will be seen only by you. Learn more ›
×
You can save this tab as Personal to edit and correct it or add notes. All changes will be seen only by you. Learn more »
launch autoscroll
font size
0
reset
how to read this tab
guitar tuner
edit
Autoscroll
slow
fast
+/-
esc
set tempo
stop
[Chorus]

e|--------------------------|------------------------------------------------|
B|--------------------------|------------------------------------------------|
G|--------------------------|------------------------------------------------|
D|--------------------------|------------------------------------------------|
A|-5-3-0--------------------|------------------------------------------------|
D|-------0-6-5-3-0-3-5-0-0--|--0-3-0-3-4-5-0-3-4-5-5-------------------------|
                                                                                 x2
e|--------------------------|------------------------------------------------|
B|--------------------------|------------------------------------------------|
G|--------------------------|------------------------------------------------|
D|--------------------------|--5/7-5-3-0-0-3-5-3-0---------------------------| short
A|-3-0-3-0-3-4-5-0-3-4-5-5--|------------------------------------------------|
D|--------------------------|----------------------\0------------------------|


[Verse]

e|---------------------------------------------|-----------------------------|
B|---------------------------------------------|-----------------------------|
G|---------------------------------------------|--x2-------------------------|
D|---------------------------------------------|-----------------------------|
A|-3-4-5-0--------------------3-4-5-0----------|-----------------------------|
D|-------0----3-4-5---3-5-0---------0--3-4-5---|-----------------------------|
PM       .                          .


[Pre-Chorus]

e|---------------------------------------------------------------------------|
B|---------------------------------------------------------------------------|
G|---------------------------------------------------------------------------|
D|---------0-00-------------------0---0--0--------0---0--0-------------------|
A|-8-7-5-5-------------------------------------------------------------------|
D|--------------8-7-5-10--1010--3---3-----------2---2------------------------|

e|---------------------------------------------------------------------------|
B|---------------------------------------------------------------------------|
G|---------------------------------------------------------------------------|
D|---------0-00-------------------0---0--0-----------------------------------|
A|-8-7-5-5-------------------------------------------------------------------|
D|--------------8-7-5-10-10-10--3---3-----------2-2-2-2-2-2-\0---------------|


[Chorus]

e|--------------------------|------------------------------------------------|
B|--------------------------|------------------------------------------------|
G|--------------------------|------------------------------------------------|
D|--------------------------|------------------------------------------------|
A|-5-3-0--------------------|------------------------------------------------|
D|-------0-6-5-3-0-3-5-0-0--|--0-3-0-3-4-5-0-3-4-5-5-------------------------|

e|--------------------------|------------------------------------------------|
B|--------------------------|------------------------------------------------|
G|--------------------------|------------------------------------------------|
D|--------------------------|--5/7-5-3-0-0-3-5-3-0-3-5-3-0-------------------| long
A|-3-0-3-0-3-4-5-0-3-4-5-5--|------------------------------------------------|
D|--------------------------|------------------------------------------------|

e|--------------------------|------------------------------------------------|
B|--------------------------|------------------------------------------------|
G|--------------------------|------------------------------------------------|
D|--------------------------|------------------------------------------------|
A|-5-3-0--------------------|------------------------------------------------|
D|-------0-6-5-3-0-3-5-0-0--|--0-3-0-3-4-5-0-3-4-5-5-------------------------|

e|--------------------------|------------------------------------------------|
B|--------------------------|------------------------------------------------|
G|--------------------------|------------------------------------------------|
D|--------------------------|--5/7-5-3-0-0-3-5-3-0---------------------------| short
A|-3-0-3-0-3-4-5-0-3-4-5-5--|------------------------------------------------|
D|--------------------------|------------------------------------------------|


[Verse]

e|---------------------------------|-----------------------------------------|
B|---------------------------------|-----------------------------------------|
G|----------------------------x2---|-----------------------------------------|
D|---------------------------------|-----------------------------------------|
A|-3-4-5---------------------------|-----------------------------------------|
D|------------3-4-5---3-5-0--------|-----------------------------------------|   

e|---------------------------------|-----------------------------------------|
B|---------------------------------|-----------------------------------------|
G|------------7--------------------|-----------------------------------------|
D|------------9b-------------------|-----------------------------------------|
A|-3-4-5---------------------------|-----------------------------------------|
D|---------------------------------|-----------------------------------------|   

e|---------------------------------|-----------------------------------------|
B|---------------------------------|-----------------------------------------|
G|---------------------------------|-----------------------------------------|
D|---------------------------------|-----------------------------------------|
A|-3-4-5---------------------------|-----------------------------------------|
D|------------3-4-5---\0-----------|-----------------------------------------|   


[Pre-Chorus]

e|---------------------------------------------------------------------------|
B|---------------------------------------------------------------------------|
G|---------------------------------------------------------------------------|
D|---------0-00-------------------0---0--0--------0---0--0-------------------|
A|-8-7-5-5-------------------------------------------------------------------|
D|--------------8-7-5-10--1010--3---3-----------2---2------------------------|

e|---------------------------------------------------------------------------|
B|---------------------------------------------------------------------------|
G|---------------------------------------------------------------------------|
D|---------0-00-------------------0---0--0-----------------------------------|
A|-8-7-5-5-------------------------------------------------------------------|
D|--------------8-7-5-10--1010--3---3-----------2---2---2---2---2------------|


[Bridge]

e|-----------------------------|---------------------------------------------|
B|-----------------------------|---------------------------------------------|
G|-------------------x7--------|-------------------x8------------------------|
D|-----------------------------|---------------------------------------------|
A|-----------5-----------------|-------------5-------------------------------|
D|-0-5-4-3-0---0----------\0---|---0-5-4-3-0---0-----------------------------|
PM . . . . . . .


[Pre-Chorus]

e|---------------------------------------------------------------------------|
B|---------------------------------------------------------------------------|
G|---------------------------------------------------------------------------|
D|---------0-00-------------------0---0--0--------0--------------------------|
A|-8-7-5-5--------------------------------------------------------5----------|
D|--------------8-7-5-10--1010--3---3-----------2---2---0-5-4-3-0---0--------|

e|---------------------------------------------------------------------------|
B|---------------------------------------------------------------------------|
G|---------------------------------------------------------------------------|
D|---------0-00-------------------0---0--0-----------------------------------|
A|-8-7-5-5-------------------------------------------------------------------|
D|--------------8-7-5-10--1010--3---3-----------2222222222222--\0------------|


[Chorus]

e|--------------------------|------------------------------------------------|
B|--------------------------|------------------------------------------------|
G|--------------------------|------------------------------------------------|
D|--------------------------|------------------------------------------------|
A|-5-3-0--------------------|------------------------------------------------|
D|-------0-6-5-3-0-3-5-0-0--|--0-3-0-3-4-5-0-3-4-5-5-------------------------|

e|--------------------------|------------------------------------------------|
B|--------------------------|------------------------------------------------|
G|--------------------------|------------------------------------------------|
D|--------------------------|--5/7-5-3-0-0-3-5-3-0-3-5-3-0-------------------| long
A|-3-0-3-0-3-4-5-0-3-4-5-5--|------------------------------------------------|
D|--------------------------|------------------------------------------------|

e|--------------------------|------------------------------------------------|
B|--------------------------|------------------------------------------------|
G|--------------------------|------------------------------------------------|
D|--------------------------|------------------------------------------------|
A|-5-3-0--------------------|------------------------------------------------|
D|-------0-6-5-3-0-3-5-0-0--|--0-3-0-3-4-5-0-3-4-5-5-------------------------|

e|--------------------------|------------------------------------------------|
B|--------------------------|------------------------------------------------|
G|--------------------------|------------------------------------------------|
D|--------------------------|--5/7-5-3-0-0-3-5-3-0-3-5-3-0-------------------| long
A|-3-0-3-0-3-4-5-0-3-4-5-5--|------------------------------------------------|
D|--------------------------|------------------------------------------------|



************************************

| x  Dead note
| b  Bend
| \  Slide down

************************************
Suggest correction
Creating personal tab
Creating personal tab
You can edit any tab online and save it as your Personal.

You can edit, replace or remove any tab part or add personal notes – all changes will be seen only by you.

Personal tabs can be accessed anytime from any device, even offline.
Learn more »
comments
print report bad tab
2 comments total.
0 reply
haameti 20 Feb 23, 2017 12:19 PM, edited on April 14 2017, 12:14 pm

.

0 reply
haameti 20 Apr 14, 2017 08:07 AM

Btw, the band name is Moriaty, not moriarty. Otherwise perfect tab

guest
You may want to rate the tab now too:
select rating
Wanna post a correction for this tab? Suggest correction