Oops, an error
Loading. Please wait.

De Nada Sirve Bass Tab

117 views 1 this week
no commentswrite comment
1 2 3 4 5
3 more votes to show rating
add to favorites
launch autoscroll
font size
0
reset
guitar tuner
Autoscroll
slow
fast
+/-
esc
set tempo
stop
Help us to improve Ultimate-Guitar.com Take our survey!
×
Les dejo esto que lo saque recien escuchando el tema , nose si esta bien ..

Los acordes son : A G F E

G|-----------------------------|
D|-----------------------------|
A|-----------------------------|
E|-5h5---3h3---1--0-1-2-3------|

bueno esta es la base del tema hasta el minuto 1:29
en ese momento es cuando empieza a cantar el loco
un poco mas rapido , ahi iria esto :


G|-----------------------------|
D|-7h7---5h5---3--22-33--------|
A|-----------------------------|
E|-----------------------------|
obviamente esta parte se toca mas rapido


y hay un par de momentos en que hace esto el bajo creo que es
en el min 6:05

G|-----------------------------|
D|-7777---5555---3333--22-33---|
A|-----------------------------|
E|-----------------------------|
esta parte es mucho mas rapida que las anteriores


y en el min 7:33 baja de nuevo el ritmo y lo toca con
la misma base de antes

G|-----------------------------|
D|-7h7---5h5---3--22-33--------|
A|-----------------------------|
E|-----------------------------|
repite esto hasta que se termina el tema que termina asi :

G|-----------------------------|
D|-7h7---5h5---3--2-2-2-2------|
A|-----------------------------|
E|-----------------------------|


[h: es un golpecito en la cuerda , nose si la h quiere decir
esto pero bueno yo se los puse asi]


Bueno espero que les sirva , no se si estara bien ,
es la primera vez que subo algo aca

Saludos !

Florencia
Suggest correction
Give kudos to tab author, rate the tab!
1 2 3 4 5
comments
print report bad tab
guest
You may want to rate the tab now too:
select rating
Wanna post a correction for this tab? Suggest correction