Oops, an error
Loading. Please wait.

La Borrachera Bass Tab

8 views 1 this week
no commentswrite comment
1 2 3 4 5
3 more votes to show rating
add to favorites
launch autoscroll
font size
0
reset
guitar tuner
Autoscroll
slow
fast
+/-
esc
set tempo
stop
Help us to improve Ultimate-Guitar.com Take our survey!
×
Esta es mi primera colaboración, una transcripción muy sencilla,
para un instrumento genial y que además se escucha muy bien.
 WIl4/Manizales

****INTRODUCCIÓN****
SKA

G||-------------------|----------------------|------------------
D||-------7---------7-|----------------------|------------------
A||--5---------5------|-------7---------7----|-------8--------8-
E||-------------------|--5---------5---------|--6---------6-----

G||-------------------|----------------------|-----------------
D||-------10-------10-|----------------------|------10-------10
A||--8---------8------|-------8----------8---|--8--------8-----
E||-------------------|-6----------6---------|-----------------

G||-------------------|----------------------------|
D||-------12-------12-|--10--10--8--8--7--7--5--5--|
A||--10--------10-----|----------------------------|
E||-------------------|----------------------------|

****VERSO****
Solo en la barra de este bar?


G||-------------------|----------------------|------------------
D||-------7------7----|----------------------|------------------
A||--5-------5--------|-------7---------7----|-------8--------8-
E||-------------------|--5---------5---------|--6---------6-----

G||-------------------|----------------------|--------------------|
D||-------7------7----|-------7---------7----|--------------------|
A||--5--------5-------|--5---------5---------|-------7---------7--|
E||-------------------|----------------------|--5---------5-------|

G||-------------------|----------------------|
D||-------------------|-------7---------7----|
A||-------8------8----|--5---------5---------|
E||--6--------6-------|----------------------|

PRE CORO
Tomo ahogando todas mis penas?


G||--------------|----------------|-----------------|----------------|
D||----10----10--|----------------|-----------------|----------------|
A||-8-----8------|----10-----10---|-----12------12--|------7------7--|
E||--------------|-8------8-------|-10------10------|--5------5------|

G||-------------------|------------------------|----------------|
D||-------------------|-------10---------10----|--------12----12|
A||-------8------8----|--8----------8----------|--10----------10--|
E||--6-------6--------|------------------------|------------------|


G||------------------------|
D||-10-10--8-8--7-7--5--5--|
A||------------------------|
E||------------------------|

CORO (con las mismas notas del pre coro)
La borrachera otra vez?


****INTRODUCCIÓN****

****VERSO****


SALSA

G||-------------------|---------------------|------------------------|
D||---------10--------|---------------------|------------------------|
A||--8-------------8--|---------10----------|----------12------------|
E||-------------------|--8-------------8----|--10--------------10----|

G||-------------------|---------------------|------------------------|
D||-------------------|---------------------|----------10------------|
A||--------7----------|----------8----------|--8--------------8------|
E||--5----------5-----|----6----------6-----|------------------------|

G||-------------------|----------------------------|
D||--------12---------|--10--10--8--8--7--7--5--5--|
A||---10----------10--|----------------------------|
E||-------------------|----------------------------|


Cualquier aporte  o comentario a mi e-mail wilf136@
Suggest correction
Give kudos to tab author, rate the tab!
1 2 3 4 5
comments
print report bad tab
guest
You may want to rate the tab now too:
select rating
Wanna post a correction for this tab? Suggest correction