Oops, an error
Loading. Please wait.

Shitty Kinsella Ripoff Tab

106 views 6 this week
no commentswrite comment
1 2 3 4 5
3 more votes to show rating
add to favorites
launch autoscroll
font size
0
reset
how to read this tab
guitar tuner
Autoscroll
slow
fast
+/-
esc
set tempo
stop
Help us to improve Ultimate-Guitar.com Take our survey!
×
Author
Difficulty
Tuning
Capo
intermediate
D G C F A D
3rd fret
-------------------------------------------------------------------------------
        Shitty Kinsella Ripoff (Folk-O-Rama Session) - Morning Effort
-------------------------------------------------------------------------------
Tabbed by: Braden Westerhoff
Tuning: DADAAD
Capo 3
These are just the notes that ring out the most.  Feel free to play a little sloppy and
hit some accidental
open strings, sounds better!  Also, feel free to use hammer-ons/pull-offs where it says
individual notes are
plucked and vice versa.  Lastly, at points where there are muted notes or chords, listen
for how they are
strummed, it is difficult to tab the exact strumming pattern.


I'm a hypochondriac...
D|----2/4p0-------0------------------------2/4p0-------0--------------------|
A|------------0h4---4p0-----------0----------------0h4---4p0-----------0----|
A|------------------------0-----2------------------------------0-----2------|
D|--0-------0-----------0-----0----------0-------0-----------0-----0--------|
A|--------------------------------------------------------------------------|
D|0-------------------------5-------5\-0-------------------------5----------|


 ...living life with a body...
|------------------------------------------------------------------------------------------|
|------------------------------------------------------------------------------------------|
|--------5/7p0-----0-------5p4p0-------2-0---4-5---0-------------------2-0---4-5---0-------|
|------0---------0---0---0-----------------------------4h5p4p0-2/4p0-----------------------|
|------------------------------------------------------------------------------------------|
|5/9-9---------9-------5---------5\2-2-----4-----5---5---------------2-----4-----5---5-5/9-|


                            ...I think that I am going to be sick...
|----------------------------0-0-x-x-0-0-x-x---------------------------------|
|----------------------------0-0-x-x-0-0-x-x---------------------------------|
|--9p7p0-----0---5p4p0-----0-0-0-x-x-0-0-x-x-4-4-5---9p7p0-----0--5p4p0-----0|
|--------0h7-----------0h4---0-0-x-x-0-0-x-x-0-0-0---------0h7----------0h4--|
|----------------------------0-0-x-x-0-0-x-x---------------------------------|
|9-------------5-------------0-0-x-x-0-0-x-x-7-7-7-9------------5------------|


|-0-0-x-x-0-0-x-x-x---------x-----|
|-0-0-x-x-0-0-x-x-x---------x-0---|
|-0-0-x-x-0-0-x-x-x-4-2-2-2-x-0-4-|
|-0-0-x-x-0-0-x-x-x-0-0-0-0-x-0-0-|
|-0-0-x-x-0-0-x-x-x---------x-----|
|-0-0-x-x-0-0-x-x-x-7-5-5-5-x-4-7-|


|----------------------------------------------------------------|
|-----4h5p4p0---4h5p4p0-0-0-0---0---4h5p4p0---4h5p4p0-0-0-0---0--|
|-----------------------0-0-0h2-0---------------------0-0-0h2-0--|
|-----------------------0-0-0---0---------------------0-0-0---0--|
|---2---------0-------------------2---------0-------------------2|
|7/---------------------5-5-5---5---------------------5-5-5---5--|


|---------------------------------------------|
|-4h5p4p0-----4h5p4p0-----4h5p4p0-------------|
|---------------------------------------------|
|-----------------------------------------0---|
|---------2-0---------0---------------0h4---0-|
|-----------------------4---------4-5---------|


|----------------------------------------------x-x-x-x-x-x-0-0-0-0-0-0-0-0-|
|----------------------------------------------x-x-x-x-x-x-4-4-4-4-4-5-5-5-|
|--2-0---4-5---0-------------------2-0---4-5-0-x-x-x-x-x-x-----------------|
|------------------4h5p4p0-2/4p0-------------0-x-x-x-x-x-x-----------------|
|----------------------------------------------x-x-x-x-x-x-----------------|
|2-----4-----5---5---------------2-----4-----5-x-x-x-x-x-x-----------------|


   ...I always wake up thinking...
|--------------------------------------------------------------2-0---4-0-0-0-0-0-0-0-0-0-0-0-|
|------------------------------4-4-4-4-4-4-4-4-4-4-4-4-4-4-4---0-0---0-0-2-2-2-2-2-4-4-4-4-4-|
|5-5-5-5-5-5-5-5-5-5-5-5-5-5-5-0-0-0-0-0-0-0-0-0-0-0-0-0-0-0---0-0---0-0-0-0-0-0-0-0-0-0-0-0-|(x4) 2nd half
|0-0-0-0-0-0-0-0-0-0-0-0-0-0-0-0-0-0-0-0-0-0-0-0-0-0-0-0-0-0-------------4-4-4-4-4-4-4-4-4-4-|
|------------------------------------------------------------------------5-5-5-5-5-5-5-5-5-5-|
|9-9-9-9-9-9-9-9-9-9-9-9-9-9-9-4-4-4-4-4-4-4-4-4-4-4-4-4-4-4-2-----4-----5-5-5-5-5-5-5-5-5-5-|

************************************

| /   slide up
| \   slide down
| h   hammer-on
| p   pull-off
| x   Mute note

************************************
Suggest correction
Give kudos to tab author, rate the tab!
1 2 3 4 5
comments
print report bad tab
guest
You may want to rate the tab now too:
select rating
Wanna post a correction for this tab? Suggest correction