Oops, an error
Loading. Please wait.

Yoshite Yoshite Chords

76 views 1 this week
no commentswrite comment
1 2 3 4 5
please rate
add to favorites
launch autoscroll
font size
0
reset
transpose
0
reset
simplify chords
display chords
guitar tuner
Autoscroll
slow
fast
+/-
esc
set tempo
stop
Help us to improve Ultimate-Guitar.com Take our survey!
×
Yoshite, Yoshite, sung by Hitomi Yoshizawa
tabbed by manOutOfTime

Intro
-------------------------------------|----------|-----------|----------------|
-------------------8-----------------|----------|-----------|----------------|
-9v---9-7p5-9v-------9\7-5-7-5-4-5-4-|-0-2--0-2-|-5/9--9/13-|----------------|
-------------------------------------|----------|-----------|----------------|
-------------------------------------|----------|-----------|----------------|
-------------------------------------|----------|-----------|----------------|
                                      1st         2nd
Intro (x2)
Am      C        F      E
Am      C        F      Am

Am      C        G               C   E
nani wo shite mo sukoshi DOJI na watashi
Am      G        F                G  E
nani wo shite mo sama ni naru wa  anata

Am      C       G             C   E
nani wo mite mo DOKIDOKI suru watashi
Am      G       E              Am
kore ga koi ne  dou naru no ka na?

---------|
-----1-1-|
-----2-2-|
---2-2-2-|
-3---0-0-|
---------|

         C               G
itsumade mo  soba ni ite ne
          F              G      E
fuan na koto nara  zenbu uchiakeru kara

         Am          E   Am
itsumade mo  anata mite itai
F         E     Esus4  E
nakimushi go    men    ne

Am        Am7         Am          Am7
"yoshite, yoshite..." dare ka miteru
Am        G           F           E
"demo ne, demo ne..." hitomi wo tojiru wa
F               G                 C         E
dakedo  dakedo  naze ka  naze ka  sukoshi kowai

---------|
---------|
---------|
-----0-2-|
-2-3-----|
---------|


Am        Am7         Am          Am7
"yoshite, yoshite..." dare ka miteru
Am        G           F           E
"demo ne, demo ne..." DAISUKI da yo
F               G
dakedo  dakedo  naze ka  naze ka
C                 E
Ah  hitomi tojichau

SOLO
-b11r11-8--11b-15-12----------------------------------------------------------|
----------------------------------------------13------b15r15-13-15-13-15------|bvvvv
---------------------14-14v------14----13/14-----14---------------------------|
-----------------------------/16----16----------------------------------------|
------------------------------------------------------------------------------|
------------------------------------------------------------------------------|

-15---------------16bbbbbbb-------------------------------------------|------|
-vvvvb15r15-15p13-----17-15-17-17-------------------------------------|------|
----------------------------------17--19-17v--15/16-171717--17v-16v---|------|
----------------------------------------------------------------------|------|
----------------------------------------------------------------------|------|
----------------------------------------------------------------------|------|

Am      C        G               C   E
nani ka areba  ochikonderu watashi
Am      G        F                G  E
kore ga koi ne  setsunaku naru wa

Am      C       G             C   E
doko made mo  tsuite yuku wa
Am      G       E              Am
anata no kotoba wo  tada shinjite yuku kara

         Am          E   Am
doko made mo  ookii na yume wo
F         E     Esus4  E
futari de mitai kara

Am        Am7         Am          Am7
"yoshite, yoshite..." nakidashisou
Am        G           F           E
"demo ne, demo ne..." hitomi wo tojiru wa
F               G                 C         E
dakedo  dakedo  naze ka  naze ka  ureshii wa

Am        Am7         Am          Am7
"yoshite, yoshite..." nakidashisou
Am        G           F           E
"demo ne, demo ne..." iya ja nai no
F               G
dakedo  dakedo  naze ka  naze ka
C                 E
Ah  namida ga deru wa

Am        Am7         Am          Am7
"yoshite, yoshite..." dare ka miteru
Am        G           F           E
"demo ne, demo ne..." DAISUKI da yo
F               G
dakedo  dakedo  naze ka  naze ka
C                 E
Ah  hitomi tojichau

-------------------------------------------|-------------------|-------------|
-------------------------------------------|-------------------|-------------|
-------------------------------------------|-------------------|-------------|
-12bv---12-10----12bv--12-10----10vvvvvv---|-9-10-10/12vvv-\0--|-9h10p9vvvv--|
--------------12-------------12------------|-------------------|-------------|
-------------------------------------------|-------------------|-------------|
Suggest correction
Give kudos to tab author, rate the tab!
1 2 3 4 5
comments
print report bad tab
guest
You may want to rate the tab now too:
select rating
Wanna post a correction for this tab? Suggest correction