Oops, an error
Loading. Please wait.

Yuujou Kokoro No Busu Ni Wa Naranee Tab

191 views 6 this week
no commentswrite comment
1 2 3 4 5
please rate
add to favorites
launch autoscroll
font size
0
reset
how to read this tab
guitar tuner
Autoscroll
slow
fast
+/-
esc
set tempo
stop
Help us to improve Ultimate-Guitar.com Take our survey!
×
Author
Yuujou ~Kokoro no Busu ni wa Naranee!~
by Otome Gumi (Morning Musume)
tabbed by manOutOfTime

Am7/G: 302010

verse riff 1:
---------------------|-----------------|-----------------|------------------|
---------------------|-----------------|-----------------|------------------|
---------------------|-----------------|----------5/7--7-|------------------|
-9/10--10---9/10--10-|-5/7--7---5/7--7-|-2/3--3---5/7--7-|-5-5-5-5-55---5-5-|
-9/10--10---9/10--10-|-5/7--7---5/7--7-|-2/3--3---3/5--5-|-5-5-5-5-55---5-5-|
-7/8---8----7/8---8--|-3/5--5---3/5--5-|-0/1--1----------|-3-3-3-3-33---3-3-|

verse riff 2:
---------------------|-----------------|-----------------|------------------|
---------------------|-----------------|-----------------|------------------|
---------------------|-----------------|-5/7--7---5/7--7-|------------------|
-9/10--10---9/10--10-|-5/7--7---5/7--7-|-5/7--7---5/7--7-|-5555-5555--------|
-9/10--10---9/10--10-|-5/7--7---5/7--7-|-3/5--5---3/5--5-|-5555-5555-------3|
-7/8---8----7/8---8--|-3/5--5---3/5--5-|-----------------|-3333-3333-3-5-6--|

verse riff 3:
--------------------|------------------|-----------------|------------------|
--------------------|------------------|-----------------|------------------|
--------------------|-9999-------------|-7777------------|------------------|
-9/10--10--9/10--10-|-9999-0-10--------|-7777--5555------|-9/10--9/10--10---|
-9/10--10--9/10--10-|-7777-0-10--------|-5555--5555------|-9/10--9/10--10---|
-7/8---8---7/8---8--|------0-8---------|-------3333------|-7/8---7/8---8----|

*Intro*
C               Am
hitori no hi mo ii-n da yo
     F         Dsus2   G
arigatasa ni kizuku sa   "nakama" to iu

C5C5 C5C5C5 G5G5 G5G5G5 A5A5 A5A5A5 F5F5 G5
OHI OHI OHI OHI OHI... U CAN DO
C5C5 C5C5C5 G5G5 G5G5G5 A5A5 A5A5A5 F5F5 G5
OHI OHI OHI OHI OHI... U CAN DO

*verse riff 1*
bukiyou na hou dakedo
"hitamuki" to iu Oi  PORISHII  Oi
wasurezu ikitai
*verse riff 1*
makenee  zettee  makenee
nishiki kazaru  Oi  hi made  Oi
HIGH HIGH HIGH
make ya shinee

C5C5C5C5 G5G5G5G5 A5A5A5A5 F5F5 G5
U CAN DO
C5C5C5C5 G5G5G5G5 A5A5A5A5 F5F5 G5
U CAN DO

*verse riff 2*
onaji seifuku  jidai
shifuku ni akogareteta Oi Oi Oi Oi
*verse riff 3*
"jiyuu" tte  muzukashii-n da ne
zenbu  jibun de kimeru tte

*Bridge*
--------------------|------------------|------------------|--------------|---|
--------------------|------------------|------------------|--------------|---|
--------------------|-8---88-----------|------------------|-77777--------|---|
-3333-xxx-10\3------|-8---88-----------|-9/10-10--9/10-10-|-77777--33333-|---|
-3333-xxx-10\3------|-6---66-----------|-9/10-10--9/10-10-|-55555--33333-|---|
-1111-xxx-8\-1------|------------------|-7/8--8---7/8--8--|--------11111-|---|
BUSAIKU tta tte kamawanee kokoro no BUSU nya nara nee tachiagare hai agare

-----------------|-----------------------------------------------------------|
-----------------|-----------------------------------------------------------|
-----------------|-----------------------------------------------------------|
-5------\-\-\----|-----------------------------------------------------------|
-5-------\-\-\---|-----------------------------------------------------------|
-3--------\-\-\--|-----------------------------------------------------------|
 yukuze

*verse riff 1*
bukiyou dakara ii-n da yo
"isshoukenmei"  to iu  Oi  kotoba  Oi
imi made oboeta
*verse riff 1*
hitori no hi mo ii-n da yo
arigatasa ni  Oi  kizuku sa  Oi
HIGH HIGH HIGH
"nakama" to iu

C5C5 C5C5C5 G5G5 G5G5G5 A5A5 A5A5A5 F5F5 G5
OHI OHI OHI OHI OHI... U CAN DO
C5C5 C5C5C5 G5G5 G5G5G5 A5A5 A5A5A5 F5F5 G5
OHI OHI OHI OHI OHI... U CAN DO

*MIDDLE*
C   C/B   Am          Am7/G
kodoku ni make sou na toki
     F    Dsus2   G
koko ni modoreba ii
C  C/B   E            Am
inaka de hagukunda jinsei
    F     G      C
hokori ni omou nara Oi

*Bridge*
shiwa ga fuetatte shikata nee
kokoro no BUSU nya nara nee
mada mada sa  Oi  koko kara sa  Oi
yukuze

*verse riff 1*
bukiyou na hou dakedo
"hitamuki" to iu  Oi  PORISHII  Oi
wasurezu ikitai
*verse riff 1*
makenee  zettee  makenee
nishiki kazaru  Oi  hi made  Oi
HIGH HIGH HIGH
make ya shinee

*Solo*
----------------|----------------|---------------|--------------|------------|
-10-------------|-9--------------|-8-----8-------|-8-----8------|------------|
-12brbrbrbrbrbr-|-11brbrbrbrbrbr-|-10b12-10b12---|-10b12-10b12--|------------|
----------------|----------------|---------------|--------------|------------|
----------------|----------------|---------------|--------------|------------|
----------------|----------------|---------------|--------------|------------|

----------------|----------------|---------------|--------------|------------|
-10-------------|-9--------------|---------------|--------------|-----15-----|
-12brbrbrbrbrbr-|-11brbrbrbrbrbr-|---------------|-----14-12-14-|-15b----15b-|
----------------|----------------|-5-5-----------|--------------|------------|
----------------|----------------|-5-5-----------|--------------|------------|
----------------|----------------|-3-3-----------|--------------|------------|

--------15------|
-15-------------|
----15bhhhhh\13-|
----------------|
----------------|
----------------|

C               Am
itsuka  koko wo hanare
     F         Dsus2     G
sudatte yuki  kanazaru seikou suru kara
C               Am
makenee  zette  makenee
     F         Dsus2        G
nishiki kazaru  Oi  hi made  Oi
HIGH HIGH HIGH
make ya shinee

*verse riff 1*
bukiyou dakara ii-n da yo
"isshoukenmei"  to iu  Oi  kotoba Oi
imi made oboeta
*verse riff 1*
hitori no hi mo ii-n da yo
arigatasa ni  Oi  kizuku sa  Oi
HIGH HIGH HIGH
"nakama" to iu

C5C5C5C5C5C5C5C5 A5A5A5A5A5A5A5A5
bukiyou na hou   dakedo
       F              Dsus2
"hitamuki" to iu  Oi  PORISHII Oi
G5G5G5G5 G5G5 G5G5
wasurezu iki  tai
C5C5C5C5C5C5C5C5 A5A5A5A5A5A5A5A5
makenee  zettee  makenee
        F5F5F5F5    D5D5D5D5
nishiki kazaru  Oi  hi made  Oi
G5   G5   G5
HIGH HIGH HIGH
G5   G5 G5 G5
make ya shinee

C5C5C5C5 G5G5G5G5 A5A5A5A5 F5F5 G5
OHI OHI OHI OHI OHI... U CAN DO
C5C5C5C5 G5G5G5G5 A5A5A5A5 F5F5 G5
OHI OHI OHI OHI OHI... U CAN DO...

F5F5 G5
U CAN DO
F5F5 G5
U CAN DO
F5 E5 D5 C5
C5
Suggest correction new What's this?
You can suggest a correction to this tab. Community and Mods will review your correction and vote to approve or reject it.
comments
We did not receive enough feedback on this tab! Please rate:
print report bad tab
1 2 3 4 5
guest
You may want to rate the tab now too:
select rating
Please do not post tabs as comments. Select "correction" instead!