Oops, an error
Loading. Please wait.

Ai Araba Its All Right Chords

237 views 1 this week
no commentswrite comment
1 2 3 4 5
please rate
add to favorites
launch autoscroll
font size
0
reset
transpose
0
reset
simplify chords
display chords
guitar tuner
Tab Pro tools
  • play this tab
  • loop segment
  • change instrument
  • show fretboard
  • metronome
×
Best way to learn
"Ai Araba Its All Right"
Autoscroll
slow
fast
+/-
esc
set tempo
stop
Contributor
Capo
1st fret
Ai Araba It's All Right
by Morning Musume
tabbed by manOutOfTime

**Capo 1**

Key: a

*Intro*
    A     E    D/C
F------0-----0---------------------|
C-----2-----0-----3-3--------------|
Ab---2-----0-----2--2--------------|
Eb--2-----0-----0------------------|
Bb-------------3-------------------|
F----------------------------------|

F----------|
C-5-3------|
Ab-----6-4-|
Eb---------|
Bb---------|
F----------|

A  D    E       F#m
Ai araba IT'S ALL RIGHT
D       E      D              A

C#-A C#-A C#-A

F----------------7-9-----------------------------------------------------------|
C-----------8-10---------------------------------------------------------------|
Ab------7-9--------------------------------------------------------------------|
Eb-7-10------------------------------------------------------------------------|
Bb-----------------------------------------------------------------------------|
F------------------------------------------------------------------------------|

*Verse*
    A         D
Tokui na koto yori mo
     A           D
Suki na koto ga ii
     A            D
Sono ba no shouri yori mo
   E      Bm  A
Hontou ni sugoku narou

    A          D
Koi wa toki ni kurushii
   A             D
Ai suru tte toutoi
    A      D
Subete wo omonjite
   E      Bm    A
Taiyou wo abi you

BRIDGE
E
Sousa
D           C#m
Jidai wa sore zore ippai
D          A
Gambatte kita yo ne
   D         A         F#m
Ojii-chan ya Sono mata Jii-chan
D                    D#
Sono mata motto motto Baa-chan ni
E
Kansha ga minagiru

*Chorus*
A     D             E     F#m
Hatsu koi wo shita toki
  D         A        Bm       E
Dou shitara ii no ka wakarazu ni
A   D       E      F#m
Senobi shite KISU shita
 D          E   F#m
Ima made de ichiban
  D     E    D         A
Furue chatta shunkan

*Break*
G       F#m    F      E

F----------|
C-5-3------|
Ab-----6-4-|
Eb---------|
Bb---------|
F----------|

*Verse*
A             D
Nayami ga kie nakute
A        D
Namida naga shitari
A              D
Kotoba tori chigaete
E         Bm A
Gokai maneitari

*Bridge*
E
Demo
D           C#m
Shoujiki ni ikiterya ippai
D          A
Kandou ni deau sa
   D                  A       F#m
Datte kyou wa kyou de mata atarashii
D                    D#
Tottemo shizen na shinsetsu ni
E
Deatta wake dashi

*Chorus*
A  D     E      F#m
Ai araba It's all right
  D       A       Bm       E
Taiyou wa subete omitoushi sa ( Sore )
A   D     E       F#m
Kodawareba It's all right
  D      E        F#m
Mirai wa It's all right
  D       E    D   A
Fumi dase It's all right

*Solo*
A  A/G A/F#m A
C  C/B C/A    x2

Dsus4   A
D       E

*Chorus*
Hey!
A     D         E        F#m
Ai araba It's all right
  D         A        Bm    E
Taiyou wa subete omitoushi sa ( Ho )
A   D       E      F#m
Kodawareba It's all right
  D      E        D
Mirai wa It's all right

-5-3--------------------------------------------------------------------------|
-----5-3----------------------------------------------------------------------|
---------6--------------------------------------------------------------------|
------------------------------------------------------------------------------|
------------------------------------------------------------------------------|
------------------------------------------------------------------------------|

( Come on! )
A     D         E       F#m
Ai araba It's all right
  D         A        Bm    E
Taiyou wa subete omitoushi sa ( Hey! )
A   D       E      F#m
Kodawareba It's all right
  D       E       F#m
Mirai wa It's all right

( Sousa min-san It's all right Say! )

A  D    E        F#m
Ai araba It's all right
  D         A        Bm    E
Taiyou wa subete omitoushi sa ( Hi! )
A   D       E      F#m
Kodawareba It's all right
  D         E        F#m
Mirai wa It's all right
  D       E    D   A
Fumi dase It's all right

D

A
No No No No No

C#-A C#-A C#-A

F----------------7-------------------------------------------------------------|
C-----------8-10---------------------------------------------------------------|
Ab------7-9--------------------------------------------------------------------|
Eb-7-10------------------------------------------------------------------------|
Bb-----------------------------------------------------------------------------|
F------------------------------------------------------------------------------|

A AA G GG A AA G GG A
comments
We did not receive enough feedback on this tab! Please rate:
print report bad tab
1 2 3 4 5
I want to post or [tab]
guest
You may want to rate the tab now too:
select rating
Please do not post tabs as comments. Select "correction" instead!