Oops, an error
Loading. Please wait.

Maji Desu Ka Ska Tab

377 views 1 this week
no commentswrite comment
1 2 3 4 5
please rate
add to favorites
launch autoscroll
font size
0
reset
how to read this tab
guitar tuner
Tab Pro tools
  • play this tab
  • loop segment
  • change instrument
  • show fretboard
  • metronome
Autoscroll
slow
fast
+/-
esc
set tempo
stop
Contributor
Maji Desu Ka Ska!
by Morning Musume
tabbed by manOutOfTime
Key: F#

-------------------00--------------------------6---7----------------------|
----------22---------44320-----------555-5-6----7---7--5-545--------------|
-22-----------------------2----111444-------------------------------------|
-22-22121----22121----------222-------------------------------------------|
-00-----------------------------------------------------------------------|
--------------------------------------------------------------------------|

--6---7----------------2----24--2-5--4-3-2---2-111--|---------------------|
-7-7---7-5-545-4---234----4-----------------2-------|---------------------|
------------------3---------------------------------|---------------------|
----------------------------------------------------|---------------------|
----------------------------------------------------|---------------------|
----------------------------------------------------|---------------------|

F#     B           C#
Daisukisugicha iya desuka
F#       B        D#m       C#
Nihon no genki wa donarimasuka
F#     B           C#
Sukasuka beat wa suki desuka
B  C#         F#
Anata wo shiritai yeah!

-2/6-----7----------6---7-------------|-----------------------------------|
-----7----7--5-45--7-7---7--542-------|-----------------------------------|
-------------------------------4--6\0-|-----------------------------------|
--------------------------------------|-----------------------------------|
--------------------------------------|-----------------------------------|
--------------------------------------|-----------------------------------|

F#     B       C#
Aisuru hito wa dare desuka
F#       B       D#m         C#
Konya no cake wa nan ni shimasuka
F#      B          C#
Kotoshi no boom wa nan desuka
B     C#          F#
Ki ni natte shoganai

   B       Bbm
Oh kono hoshi niwa
B         F#
Yuwaku ga osugi
B           D#m
Jozu ni kawashi
    G#m      C#
Yume wo kanaeyo

---------------------------111-4-7-9-|------------------------------------|
-----------------------222-----------|------------------------------------|
-------------------------------------|------------------------------------|
-------------------------------------|------------------------------------|
--4-1--22-3--4-1--22-3---------------|------------------------------------|
-------------------------------------|------------------------------------|

Maji desuka suka!
F#              C#
Donna toki demo positive de
Bbm            B
Mecha kirakira hana sakaso
F#              D#m
Kitto itsuka wa family wo
B      G#m    F#
Shokai sasere ne
B    C#     F#
Urusakutemo yurushite

SOLO
----------------------|----------------------|--------------------|-------|
----5-4-5-------------|---5-4-5----------2vv-|----5-4-5-----------|-------|
----4-3-4-------------|---4-3-4--------------|----4-3-4-----------|-------|
----------------------|----------------------|--------------------|-------|
----------0h1--0h3-4--|--------0h1--0h3------|----------0h1-0h3-4-|-------|
-2--------------------|-2--------------------|-2------------------|-------|

--------------|-5-4444------|---------------------------------------------|
--------------|-------------|---------------------------------------------|
-777--6--5----|-------------|---------------------------------------------|
-777--6--5----|-------------|---------------------------------------------|
--------------|-------------|---------------------------------------------|
--------------|-------------|---------------------------------------------|

F#       B       C#
Oshaberi nano wa iya desuka
F#       B       D#m        C#
Omise no mood no nomaremasenka
F#       B       C#
Sukasuka beat de noremasuka
B     C#      F#
Anata wo shiritai yeah!

-2/6-----7----------6---7-------------|-----------------------------------|
-----7----7--5-45--7-7---7--542-------|-----------------------------------|
-------------------------------4--6\0-|-----------------------------------|
--------------------------------------|-----------------------------------|
--------------------------------------|-----------------------------------|
--------------------------------------|-----------------------------------|

F#       B        C#
Kondo no kyujitsu hima desuka
F#         B        D#m        C#
Kotoshi no natsu mo atsuso desuka
F#        B       C#
Konomi no mode wa nan desuka
B     C#         F#
Ki ni natte shoganai

   B            Bbm
Oh kono machi niwa
B         F#
Tomodachi ga ippai
B          D#m
Jiman shitai
    G#m      C#
Nakama ga ippai

---------------------------111-4-7-9-|------------------------------------|
-----------------------222-----------|------------------------------------|
-------------------------------------|------------------------------------|
-------------------------------------|------------------------------------|
--4-1--22-3--4-1--22-3---------------|------------------------------------|
-------------------------------------|------------------------------------|

Maji desuka suka!
F#              C#
Konna hibi demo special de
Bbm           B
Mcha kirakira hana sakaso
F#               D#m
Kitto watashi mo mama mitaina
B      G#m      F#
Kazoku wo motte de
B     C#      F#
Ko yu noyo shiawase

SOLO2

-/9-8-6----------------------|-/9-8-6-------------------/8-----|------------|
--------4-4-4-67-7-7-7-5402--|--------4-4-4-67-7-7-7-54--------|------------|
-----------------------------|---------------------------------|------------|
-----------------------------|---------------------------------|------------|
-----------------------------|---------------------------------|------------|
-----------------------------|---------------------------------|------------|

-/8---------------------|------------------1--1-2-|-1---0------------|------|
----7---9-7-----7-------|--------2-3-4--4---------|---------4---3----|------|
------------9-----9-6---|-4-3-4-------------------|------------------|------|
----------------------9-|-------------------------|------------------|------|
------------------------|-------------------------|------------------|------|
------------------------|-------------------------|------------------|------|

----------------------------------------|-----------------------------------|
-2-0-------------------3-2vvvvvv-0tr2-2-|-----------------------------------|
-------3---1-----4---2------------------|-----------------------------------|
---------1-----4---2--------------------|-----------------------------------|
-------------4--------------------------|-----------------------------------|
----------------------------------------|-----------------------------------|

Maji desuka suka!
F#               C#
Donna toki demo positive de
Bbm            B
Mecha kirakira hana sakaso
F#              D#m
Kitto itsuka wa family wo
B    G#m      F#
Shokai sasere ne
B    C#     F#
Urusakutemo yurushite

F#              C#
Konna hibi demo special de
Bbm           B
Mcha kirakira hana sakaso
F#               D#m
Kitto watashi mo mama mitaina
B      G#m      F#
Kazoku wo motte de
B     C#       F#
Ko yu noyo shiawase

OUTRO
-------------------00-00-1--|
----------22---------4------|
-22-------------------------|
-22-22121----22121----------|
-00-------------------------|
----------------------------|

-6---7----------6---7----------------2----24--2-5--4-3-2---2-111--|---------|
--7---7--5-545-7-7---7--5-45-4---234----4-----------------2-------|---------|
--------------------------------3---------------------------------|---------|
------------------------------------------------------------------|---------|
------------------------------------------------------------------|---------|
------------------------------------------------------------------|---------|

-|----------2---|-0tr2-0h2p0------------------------------------------------|
-|-2--1--2------|-----------2-1---------------------------------------------|
-|--------------|--------------4-32h3--2h3----------------------------------|
-|--------------|--------------------------4vvv-----------------------------|
-|--------------|-----------------------------------------------------------|
-|--------------|-----------------------------------------------------------|
comments
We did not receive enough feedback on this tab! Please rate:
print report bad tab
1 2 3 4 5
I want to post or [tab]
guest
You may want to rate the tab now too:
select rating
Please do not post tabs as comments. Select "correction" instead!