Oops, an error
Loading. Please wait.

Summer Night Town Tab

71 views 1 this week
no commentswrite comment
1 2 3 4 5
please rate
add to favorites
launch autoscroll
font size
0
reset
how to read this tab
guitar tuner
Tab Pro tools
  • play this tab
  • loop segment
  • change instrument
  • show fretboard
  • metronome
Autoscroll
slow
fast
+/-
esc
set tempo
stop
Contributor
Summer Night Town 
by Morning Musume
tabbed by manOutOfTime
Key: Em

CHORUS:
SUMAIRU SUMAIRU SUMAIRU
C       B       Em
Don'na egao misetemo

-RIFF 1:----------|
------------------|
------------------|
------------------|
-------2-3--2-----|
-0--3---------3-0-|

       C          D       Em
Kokoro no naka ga yomaresou
      C       B      Em (RIFF 1)
Otona butta heta na egao ja
       C       D
Kokoro kakusenai
   Em
DaiKIRAI DaiKIRAI DaiKIRAI DaiSUKI

MAIN RIFF:
--------------------------|--------------------------|
--------------------------|--------------------------|
--------------------------|----------------------2---|
----------0---0-----------|----------0---0-----------|
-------2----2---4--0------|-------2----2---4--0------|
-0--3-----------------0---|-0--3---------------------|

VERSE:
Em    
Kisetsu o kanjite SAMAA NAITO
       C
Itsumo futari de itai no
Em
Wagamama nanka wa iwanai
       C
Dakedo futari de itai no
Em    C        F#m
Nanka hen na kanji

-RIFF 2:----------|
------------------|
------------------|
----------0-------|
-------2----2-----|
-0--3---------3-0-|

Em
Kyonen wa dono musume to SAMAA NAITO
       C
Don'na fuu ni sugoshita no
Em
JERASHII nanka wa kanjitai
        C
Tada no YAKIMOCHI da kara
Em    C      Em
Ah mujun darake

-RIFF 3:----------|
------------------|
------------------|
-------4-2--------|
-----------2------|
-0--3--------0----|

MIDDLE:
Em                 F#m
Watashi no naka ni watashi ga iru wa
D               Em
KAWAIKU narenai watashi
Em                 F#m
Anata no ude ni tobikomenakute
Am               B (RIFF 1)
SUNEtari naitari shite

B  B             BB
   SUMAIRU SUMAIRU SUMAIRU
C       B       Em (RIFF 1)
Don'na egao misetemo
       C          D       Em (RIFF 3)
Kokoro no naka ga yomaresou
      C       B      Em (RIFF 1)
Otona butta heta na egao ja
       C       D
Kokoro kakusenai
   Em
DaiKIRAI DaiKIRAI DaiKIRAI DaiSUKI

MAIN RIFF

Em
Doko demo ii kedo Drivin'
          C
Itta koto nai TOKO ga ii
Em
Betsu ni mayottemo kamawanai
         C
Anata mo shiranai TOKORO
Em    C        F#m (RIFF 3)
Hontou hen na watashi

Em
Oinori shita no yo Oh my god
      C
Motto chikazukeru you ni
Em
Futari no toshi no sa Oh my god
      C
Motto chikazuku you ni
Em    C        Em (RIFF 3)
Ah muri na hanashi

MIDDLE:
Em                 F#m
Anata no naka no watashi wa doko yo
D               Em
Hayaku KURIKKU shite mite
Em                 F#m
Minami no shima no sora no tori mitai ni
Am               B (RIFF 1)
Anata ni ukande mitai

B  B             BB
   SUMAIRU SUMAIRU SUMAIRU
C       B       Em (RIFF 1)
Don'na egao misetemo
       C          D       Em (RIFF 3)
Kokoro no naka ga yomaresou
      C       B      Em (RIFF 1)
Otona butta heta na egao ja
       C       D
Kokoro kakusenai
   Em
DaiKIRAI DaiKIRAI DaiKIRAI DaiSUKI

SOLO
----------8h10-8--------8------------|---7h8h9h10-10-10-7h8h9h10-10-10-|
--------8--------8--11---------------|---------------------------------|
-----9-------------------------------|---------------------------------|
-10------------------------10--------|-9-------------------------------|
-------------------------------------|---------------------------------|
-------------------------------------|---------------------------------|
 C                                     B
                                 
-------------------------------------|---------------------------------|
-12p10p8-10-------10-----------------|----------/12--10----------------|
------------9-12------12-------------|----6--9-----------9--12---------|
-------------------------------------|-7-------------------------------|
-------------------------------------|---------------------------------|
-------------------------------------|---------------------------------|
                                       Am
                                       
--------------------10---------------|---------------------------------|
-8h9h10--8--10--12------12-----------|---------------------------------|
-------------------------------------|---------------------------------|
-------------------------------------|---------------------------------|
-------------------------------------|---------------------------------|
-------------------------------------|---------------------------------|
 Bm

***KEY CHANGE***
C
SUMAIRU SUMAIRU SUMAIRU
C#      C       Fm
Don'na egao misetemo
       C#          D#       Fm
Kokoro no naka ga yomaresou
      C#       C      Fm
Otona butta heta na egao ja
       C#       D#
Kokoro kakusenai
   Fm
DaiKIRAI DaiKIRAI DaiKIRAI DaiSUKI

C#       C       Fm
Kuchibiru mitsumenaide
       C#          D#       Fm
Kokoro no naka ga yomaresou
      C#       C      Fm
Otona butta heta na egao ja
       C#       D#
Kokoro kakusenai
   Fm
DaiKIRAI DaiKIRAI DaiKIRAI DaiSUKI

end on: C#
comments
We did not receive enough feedback on this tab! Please rate:
print report bad tab
1 2 3 4 5
I want to post or [tab]
guest
You may want to rate the tab now too:
select rating
Please do not post tabs as comments. Select "correction" instead!