Oops, an error
Loading. Please wait.

Theres Love In This Great Big World Tab

332 views 3 this week
no commentswrite comment
1 2 3 4 5
please rate
add to favorites
launch autoscroll
font size
0
reset
how to read this tab
guitar tuner
Tab Pro tools
  • play this tab
  • loop segment
  • change instrument
  • show fretboard
  • metronome
Autoscroll
slow
fast
+/-
esc
set tempo
stop
Contributor
Morning Musume - Dekkai Uchuu ni Ai ga Aru "There's Love In This Great Big World"
manOutOfTime

----------5------------------------------------------7~|--2-------------------|
-9--------------7----9---7-/5---7-9-------5---5----4~~~|--5-------------------|
-9--9--6-----8----8--8------6---------6----------------|--4-------------------|
-------7-----9------------------------7-------2--------|--4-------------------|
-------------------------------------------------------|--2-------------------|
-------------------------------------------------------|--2-x8----------------|

**Chorus**
E      A      B        G#m
dekkai dekkai uchuu ni aru
C#m    A      B       E
ma-rui ma-rui chikyuu de
E          A          B        G#m
chiccha na chiccha na omoiyari ga
C#m      A        B     E
dekka na dekka na ai to naru

E B E     E B A E     B         E B A E

E   A         B     B
shoujiki na kimochi dakara
C#m  A     E            C#m-A
tsutawatte hoshii
E   A       B       B
ima sugu ja nakutte mo
C#m  A       E          C#m-A
sono uchi de ii

E   A         B
kotoba de hanasenakute mo
C#m   A      E          C#m-A
hanarete ite mo
E   A         B
TEREPASHII tte arun da to
C#m    A       E        C#m-C#m A A
shinjite miru yo

E    A         C#m      C#m-G#m
dare ka wo semeru yori
C#m A         E    B
namida wo nagasu yori
E     A     G#m  E  B
jibun wo aishite ageyou

**Chorus**
E      A      B        G#m
dekkai dekkai uchuu ni aru
C#m    A      B       E
ma-rui ma-rui chikyuu de
E          A          B        G#m
chiccha na chiccha na omoiyari ga
C#m      A        B     E
dekka na dekka na ai to naru

E B E     E B A E     B         E B A E

E   A         B
aesou ni nai no nara
C#m   A      E          C#m-A
shikata nai kedo
E   A         B
deatta kono shinjitsu wa
C#m    A       E        C#m-C#m A A
taisetsu ni suru yo

E    A         C#m      C#m-G#m
donna sugoi yatsu mo
C#m A         E    B
kodoku wa samishii no?
E     A     G#m  E  B
waratta nara tanoshii no?

**Chorus**
E      A      B        G#m
dekkai dekkai uchuu ni aru
C#m    A      B       E
ma-rui ma-rui chikyuu de
E          A          B        G#m
chiccha na chiccha na omoiyari ga
C#m      A        B     E
dekka na dekka na ai to naru

Solo
---------------------------|-12-12-12-12---12-12-12-12---12-12-|-------------|
---------------------------|-12-12-12-12---12-12-12-12---12-12-|-------------|
---------------------------|-12-12-12-12---12-12-12-12---12-12-|-------------|
----------4-6-7---6-4------|-----------------------------------|-------------|
-4--6-7---------------7-6--|-----------------------------------|-------------|
---------------------------|-------------------------------x4--|-------------|

-14-|-12-12-12-12---12-12-12-12---12-12-|-/19-19-19-19--19-19-19-19--19-19--|
-14-|-12-12-12-12---12-12-12-12---12-12-|-/19-19-19-19--19-19-19-19--19-19--|
-14-|-12-12-12-12---12-12-12-12---12-12-|-/19-19-19-19--19-19-19-19--19-19--|
----|-----------------------------------|-----------------------------------|
----|-----------------------------------|-----------------------------------|
----|------------------------------x2---|-----------------------------------|

chiccha na chiccha na akanbou datte
hisshi de hisshi de naiteru
bokura mo bokura mo dekiru koto wo
hisshi de hisshi de mitsuketai

F      Bb      C               Am
dekkai dekkai uchuu ni aru
Dm    Bb      C       F
ma-rui ma-rui chikyuu de
F          Bb         C        Am
chiccha na chiccha na omoiyari ga
Dm      Bb        C     F
dekka na dekka na ai to naru

-13-13-13-13---| etc
-13-13-13-13---|
-13-13-13-13---|
---------------|
---------------|
---------------| Played on out

F      Bb      C               Am
dekkai dekkai uchuu ni aru
Dm    Bb      C       F
ma-rui ma-rui chikyuu de
F      Bb      C               Am
chiccha na chiccha na omoiyari ga
Dm    Bb      C       F
dekka na dekka na ai to naru

F      Bb      C               Am
dekkai dekkai uchuu ni aru
Dm    Bb      C       F
ma-rui ma-rui chikyuu de
F      Bb      C               Am
chiccha na chiccha na omoiyari ga
Dm    Bb      C       F
dekka na dekka na ai to naru

ai to naru
comments
We did not receive enough feedback on this tab! Please rate:
print report bad tab
1 2 3 4 5
I want to post or [tab]
guest
You may want to rate the tab now too:
select rating
Please do not post tabs as comments. Select "correction" instead!