Oops, an error
Loading. Please wait.

Gone Up In Flames tab

version 1
version 1

Whole song

4,068 views 6 this week
2 commentsread comments
1 2 3 4 5
x 3
add to favorites
×
Save as Personal and add changes to this tab that will be seen only by you. Learn more ›
×
You can save this tab as Personal to edit and correct it or add notes. All changes will be seen only by you. Learn more »
launch autoscroll
font size
0
reset
how to read this tab
guitar tuner
edit
Autoscroll
slow
fast
+/-
esc
set tempo
stop
Author
Difficulty
Intro
e|3----0----3----0----3----3-----------------------------------------------------|
B|2----2----2----2----2----2-----------------------------------------------------|
G|0----2----0----2----0----0-----------------------------------------------------|
D|0----0----0----0----0----0-----------------------------------------------------|
A|3----0----3----0----3----3-----------------------------------------------------|
E|3----0----3----0----3----3-----------------------------------------------------|

Verse 1

e|--------------------------------0----3-----------------|
B|--------------------------------2----2-----------------|
G|----------------2-2-2-2-2-2-2-2-2----0-----------(x3)--|
D|2-2-2-2-2-2-2-2-2-2-2-2-2-2-2-2-0----0-----------------|
A|3-3-3-3-3-3-3-3-2-2-2-2-2-2-2-2-0----3-----------------|
E|2-2-2-2-2-2-2-2-----------------0----3-----------------|

Chorus

e|0----3-----------------------------------------------------------------------------|
B|2----2-----------------------------------------------------------------------------|
G|2----0--------(x4)-----------------------------------------------------------------|
D|0----0-----------------------------------------------------------------------------|
A|0----3-----------------------------------------------------------------------------|
E|0----3-----------------------------------------------------------------------------|

Then there’s a small solo bit that I’ll put up soon k thanks.

            
            
Suggest correction
Creating personal tab
Creating personal tab
You can edit any tab online and save it as your Personal.

You can edit, replace or remove any tab part or add personal notes – all changes will be seen only by you.

Personal tabs can be accessed anytime from any device, even offline.
Learn more »
Give kudos to tab author, rate the tab!
1 2 3 4 5
comments
print report bad tab
2 comments total.
+1 reply
semsem 10 Aug 17, 2007 01:33 PM

I could be wrong but i think u flippes the chords up-side-down, check the letters E-A-D-G-B-E , accept my deepest appologies if i'm wrong and thank you very much for sharing this beautiful song with us.

+1 reply
imabookie3 155 Nov 12, 2008 02:04 PM, edited on March 7 2014, 11:44 am

I agree with semsem. Thank you for sharing this song!

guest
You may want to rate the tab now too:
select rating
Wanna post a correction for this tab? Suggest correction