Oops, an error
Loading. Please wait.

Bangkit Tab

125 views 1 this week
no commentswrite comment
1 2 3 4 5
please rate
add to favorites
launch autoscroll
font size
0
reset
how to read this tab
guitar tuner
Autoscroll
slow
fast
+/-
esc
set tempo
stop
Help us to improve Ultimate-Guitar.com Take our survey!
×
Contributor
ximranx 73
-----------------------------------------------------------------
                     Morningsick - Bangkit
-----------------------------------------------------------------
Band            : Morningsick
Song            : Bangkit
Album           : Tetap Semangat di Jalan Ini
Tabbed by       : ximranx
Email           : abowlofcherries10@gmail.com 

e|---------------------------------------------|
B|---------------------------------------------|
G|---------------------------------------------|        2x
D|-9-9-4h5-4---5-5-4h5-4---9-9-4h5-4---5-7-5-4-|
A|-7-7-------5-3-3-------5-7-7-------5-3-------|
E|---------------------------------------------|
   . .         . .         . .

e|---------------------------------------------------------------------|
B|---------------------------------------------------------------------|
G|---------------------------------------------------------------------|
D|-9-9-4h5-4---5-5-4h5-4---9-9-4h5-4---5-7-5-4-9---9-------------------|
A|-7-7-------5-3-3-------5-7-7-------5-3-------7---7>>>>>>> pick slide-|
E|---------------------------------------------------------------------|
   . .         . .         . .

  "Satukanlah semangatku..."
e|-----------------------------------------------|
B|-----------------------------------------------|
G|-----------------------------------------------|
D|-9-9-9-9-9-9-9-9-9----10-10-10-10-10-7-7-7-7-7-|
A|-7-7-7-7-7-7-7-7-7-10--8--8--8--8--8-5-5-5-5-5-|
E|--------------------8--------------------------|

  "Tinggalkan luka..."
e|-----------------------------------------|
B|-----------------------------------------|
G|-----------------------------------------|
D|-9-9-9-9-9-9-9-9-9-7-5-5-5-5-5-7-7-7-7-7-|
A|-7-7-7-7-7-7-7-7-7-5-3-3-3-3-3-5-5-5-5-5-|
E|-----------------------------------------|

  "Alihkan semua..."
e|-----------------------------------------------|
B|-----------------------------------------------|
G|-----------------------------------------------|
D|-9-9-9-9-9-9-9-9-9----10-10-10-10-10-7-7-7-7-7-|
A|-7-7-7-7-7-7-7-7-7-10--8--8--8--8--8-5-5-5-5-5-|
E|--------------------8--------------------------|

  "Kuat..."
e|---------------------------------------------------------------------|
B|---------------------------------------------------------------------|
G|---------------------------------------------------------------------|
D|-9-9-9-9-9-9-9-9-9-7-5-5-5-5-5-7-7-7-7-7-9-9---9-9-------------------|
A|-7-7-7-7-7-7-7-7-7-5-3-3-3-3-3-5-5-5-5-5-7-7---7-7>>>>>>> pick slide-|
E|---------------------------------------------------------------------|

  "Satukanlah semangatku..."
e|-----------------------------------------------|
B|-----------------------------------------------|
G|-----------------------------------------------|
D|-9-9-9-9-9-9-9-9-9----10-10-10-10-10-7-7-7-7-7-|
A|-7-7-7-7-7-7-7-7-7-10--8--8--8--8--8-5-5-5-5-5-|
E|--------------------8--------------------------|

  "Tinggalkan luka..."
e|------------------------------------------------------------------|
B|------------------------------------------------------------------|
G|------------------------------------------------------------------|
D|-9-9-9-9-9-9-9-9-9-7-5-5-5-5-5-7-7-7-5-7-7-9--9-------------------|
A|-7-7-7-7-7-7-7-7-7-5-3-3-3-3-3-5-5-5-3-5-5-7--7>>>>>>> pick slide-|
E|------------------------------------------------------------------|
                                   . .
  "Satukanlah semangat..."
e|---------------------------------------------|
B|---------------------------------------------|
G|-9-9-9-9-9-5-5-5-5-5-5-3-3-3-3-3-5-5-5-4-4-4-|        2x
D|-x-x-x-x-x-x-x-x-x-x-x-x-x-x-x-x-x-x-x-x-x-x-|
A|-7-7-7-7-7-3-3-3-3-3-3-5-5-5-5-5-3-3-3-2-2-2-|
E|---------------------------------------------|

  "Berdiri tegak..."
e|-------------------------------------------------------|
B|-------------------------------------------------------|
G|-------------------------------------------------------|      2x
D|-----9-----9-9-----5-----5-5-----7-----7-7-----5-----4-|
A|-7-7---7-7-----3-3---3-3-----5-5---5-5-----3-3---2-2---|
E|-------------------------------------------------------|
   . .   . .     . .   . .     . .   . .     . .   . .

e|---------------------------------------------|
B|---------------------------------------------|
G|-9-9-9-9-9-5-5-5-5-5-5-3-3-3-3-3-5-5-5-4-4-4-|
D|-x-x-x-x-x-x-x-x-x-x-x-x-x-x-x-x-x-x-x-x-x-x-|
A|-7-7-7-7-7-3-3-3-3-3-3-5-5-5-5-5-3-3-3-2-2-2-|
E|---------------------------------------------|

e|-----------------------------------------------------------------------|
B|-----------------------------------------------------------------------|
G|-9-9-9-9-9-5-5-5-5-5-5-3-3-3-3-3-5-5-5---------------------------------|
D|-x-x-x-x-x-x-x-x-x-x-x-x-x-x-x-x-x-x-x-4-4-4-9--9--------------------9-|
A|-7-7-7-7-7-3-3-3-3-3-3-5-5-5-5-5-3-3-3-2-2-2-7--7>>>>>>> pick slide--7-|
E|-----------------------------------------------------------------------|

h  = hammer-on
p  = pull-off
/  = slide up
\  = slide down

I just try to figure this song. any questions or comments email me at 
abowlofcherries10@gmail.com. Please rate!

http://www.reverbnation.com/morningsickhc
comments
We did not receive enough feedback on this tab! Please rate:
print report bad tab
1 2 3 4 5
I want to post or [tab]
guest
You may want to rate the tab now too:
select rating
Please do not post tabs as comments. Select "correction" instead!