Oops, an error
Loading. Please wait.

Today Is The Day Tab

version 1
version 1

Intro

Whole song

866 views 1 this week
2 commentsread comments
1 2 3 4 5
3 more votes to show rating
add to favorites
launch autoscroll
font size
0
reset
how to read this tab
guitar tuner
Autoscroll
slow
fast
+/-
esc
set tempo
stop
Help us to improve Ultimate-Guitar.com Take our survey!
×
-------------------------------------------------------------------------------
Today is the Day intro  Moros Eros
-------------------------------------------------------------------------------
Tabbed by:sonny moore
Email:

Tuning:drop b jk standard

Just follow the song. Enjoy very fun.
e|---------------------------------------------------------------------------------------|
B|---------------------------------------------------------------------------------------|
G|------------------9--------------9---------------9----------------9----------9---------|
D|-----------10-------------10--------------10---------------10---------10---------------|
A|------12-------------12-------------12--------------12------------12-------------------|
E|---------------------------------------------------------------------------------------|

e|---------------------------------------------------------------------------------------|
B|---------------------------------------------------------------------------------------|
G|--------------9-----------9-----------9------------9-----------9-----------------------|
D|-------10----------10-----------10----------10-----------10----------------------------|
A|--11----------11-------------11--------11-----------11---------------------------------|
E|---------------------------------------------------------------------------------------|

| /  slide up
| \  slide down
| h  hammer-on
| p  pull-off
| ~  vibrato
| +  harmonic
| x  Mute note
=================
http://www.victoryrecords.com/moroseros
Suggest correction
Give kudos to tab author, rate the tab!
1 2 3 4 5
comments
print report bad tab
2 comments total.
0 reply
bringme the day 15 Mar 14, 2007 07:15 PM

it should be right listen to thw song for timing

0 reply
_Zeppelin_ 10 Jul 16, 2008 08:50 PM

Don't you play all the A D and E strings at the same time? Instead of plucking one by one. Like:

e|------------------------------
B|------------------------------
G|---9----9----9----9----9------
D|---10---10---10---10---10-----
A|---12---12---12---12---12-----
E|------------------------------

guest
You may want to rate the tab now too:
select rating
Wanna post a correction for this tab? Suggest correction