Oops, an error
Loading. Please wait.

Frenchfries With Pepper bass

version 2
version 2

Whole song

2,334 views 1 this week
1 commentread comment
1 2 3 4 5
2 more votes to show rating
add to favorites
×
Save as Personal and add changes to this tab that will be seen only by you. Learn more ›
×
You can save this tab as Personal to edit and correct it or add notes. All changes will be seen only by you. Learn more »
launch autoscroll
font size
0
reset
guitar tuner
edit
Autoscroll
slow
fast
+/-
esc
set tempo
stop
Author
your gonna need to tune your A string down so that its 7th fret matches your open G string.


--------------------------------------------------|
----/13\11-11-11-11-11/13-------------------------|
-8-----------------------13-13-13--13-12-11--11/--|
--------------------------------------------------|
on 6/6/66 i was little, i didnt know shit
on 7/7/77 eleven years later still dont know any better
on 8/8/88 way too late for me to change
about 9/9/99 I hope im sittin on the back porch, drinkin red wine

---------------------------------------------|
---/13\11-11-11-11-11/13---------------------|
-8-----------------------13--13--13-11-13----|
---------------------------------------------|
singing oohoh
french. fries. with pepper.

            
            
Suggest correction
Creating personal tab
Creating personal tab
You can edit any tab online and save it as your Personal.

You can edit, replace or remove any tab part or add personal notes – all changes will be seen only by you.

Personal tabs can be accessed anytime from any device, even offline.
Learn more »
Give kudos to tab author, rate the tab!
1 2 3 4 5
comments
print report bad tab
1 comment total.
0 reply
JAStewart 7,264 Oct 07, 2011 08:05 AM

Mark would play with on only two strings, putting the D and G strings into the regular A and D slots and tuning the G up one step. Thusly, the song would play like such:

A---6--4-4--4-3456---|-------------------
D-1------------------|-6-6-6--6-5--4-4---

This song is more easily played with a Capo.

guest
You may want to rate the tab now too:
select rating
Wanna post a correction for this tab? Suggest correction