Oops, an error
Loading. Please wait.

Scratch bass

version 2
version 2

Whole song

Interactive

881 views 3 this week
1 commentread comment
1 2 3 4 5
2 more votes to show rating
add to favorites
×
Save as Personal and add changes to this tab that will be seen only by you. Learn more ›
×
You can save this tab as Personal to edit and correct it or add notes. All changes will be seen only by you. Learn more »
launch autoscroll
font size
0
reset
guitar tuner
edit
Autoscroll
slow
fast
+/-
esc
set tempo
stop
Author
youll have to tune your A string down so that its 7th fret matches your open G string. 
morphine songs are in this tuning.

intro:
-------------------------------|
-7--7h9-9p7-7-7h9/12-----------|
-7--7---7---7-7----------------|
-------------------------------|

-------------------------------|
-7--7h9-9p7-7-9p7\5/7----------|
-7--7---7---7------------------|
-------------------------------|

verse:
-------------------------------|
-7--7h9-9p7-7h9p7h9------------|
-7--7---7---7------------------|
-------------------------------|
i was sittin on top of the world
i really had things in my hand

--------------------------------|
---6/12---12\8------------------|
-5------5-----------------------|
--------------------------------|
then something went wrong im not sure what

chorus:
----------------------------------|
-11---10-10-10--------------------|
-11---10-10-10--------------------|
----------------------------------|
i lost everything i had...
startin over from scratch


thats basicly everything, if you know the song youll have no problem putting it all together
Suggest correction
Creating personal tab
Creating personal tab
You can edit any tab online and save it as your Personal.

You can edit, replace or remove any tab part or add personal notes – all changes will be seen only by you.

Personal tabs can be accessed anytime from any device, even offline.
Learn more »
Give kudos to tab author, rate the tab!
1 2 3 4 5
comments
print report bad tab
1 comment total.
0 reply
JAStewart 7,264 Oct 07, 2011 07:50 AM

It's played on two strings, that's D and A (normal high G tuned up two steps). Like this:

A---0---2---0---0-2-5-|-0---2---0---3-2-0-2-
D-0---0---0---0-------|-0-0---0---0---------

Watch nearly any video of Mark playing and he's down about the open fret. What he does is move the D and A into the middle two spaces. Some songs, I concede, might use the tuning you tab as, like Buena.

guest
You may want to rate the tab now too:
select rating
Wanna post a correction for this tab? Suggest correction