Oops, an error
Loading. Please wait.

America Is Not The World Bass Tab

294 views 1 this week
no commentswrite comment
1 2 3 4 5
please rate
add to favorites
launch autoscroll
font size
0
reset
guitar tuner
Autoscroll
slow
fast
+/-
esc
set tempo
stop
Help us to improve Ultimate-Guitar.com Take our survey!
×
Author
America Is Not the World
Morrissey
Bass Tab
Bassist: Gary Day

168BPM, 4/4

Intro

|---------|---------|---------|---------|
|---------|---------|---------|---------|
|---------|---------|---------|---------|
|---------|---------|---------|---------|

Verse
                                           4x
||----------|---------|---------|----------||
||o---------|---------|---------|---------o||
||o---------|---------|---------|---------o||
||----------|---------|---------|----------||

|----------|---------|----------|-----------|
|----------|---------|----------|-----------|
|----------|---------|----------|-----------|
|-5--------|---------|-3--------|-----3\----|

|----------|----------|----------|---------|
|----------|----------|----------|---------|
|----------|----------|-5--------|---------|
|-1--------|-------/--|----------|---------|

Verse 2

||--------------|---------|-------------|---------|
||o-------------|---------|-------------|---------|
||o-3--------3--|---------|-3--------3--|---------|
||------1h3-----|---------|-----1h3-----|---------|

|------------|---------|-------------|----------||
|------------|---------|-------------|---------o||
|-----3------|---------|-5--------5--|---------o||
|-1-------1--|---------|-----3h5-----|----------||

|------------|---------|------------|---------|
|-7-------7--|---------|------------|---------|
|-----7------|---------|------------|---------|
|------------|---------|-0---7---0--|---------|

|------------|---------|------------|---------|
|------------|---------|------------|---------|
|-5-------5--|---------|-7-------7--|---------|
|-----5------|---------|-----7------|---------|

|------------|---------|------------|---------|
|---------7--|---------|------------|---------|
|-----7------|---------|------------|---------|
|-5----------|---------|-0---7---0--|---------|

|------------|---------|----------------|-------------|
|------------|---------|------------235-|--5-2-----5--|
|-5-------5--|---------|--------2h5-----|-------5-----|
|-----5------|---------|-3--3h5---------|-------------|

Verse 3

||-----------------|------------|----------------|------------|
||o----------------|------------|----------------|------------|
||o----3-3-3-3-3---|--3-3--3----|----3-3-3-3-3---|--3-3--3----|
||--3------------3-|------------|-3------------3-|------------|

|----------------|------------|----------------|-------------||
|----------------|------------|----------------|------------o||
|----3-3-3-3-3---|--3-3--3----|----3-3-3-3-3---|--3-3--3----o||
|-1------------1-|------------|-1------------1-|-------------||

|----------------|------------|----------------|------------|
|-7------------7-|------------|----------------|------------|
|----7-7-7-7-7---|--7-7--7----|----5-5-5-5-5---|--5-5--5----|
|----------------|------------|-3------------3-|------------|

|----------------|------------|----------------|------------|
|----------------|------------|----------------|--7-7--7----|
|----3-3-3-3-3---|--3-3--3----|-5------------5-|------------|
|-1------------1-|------------|----5-5-5-5-5---|------------|

|----------------|------------|----------------|------------|
|----------------|------------|----------------|------------|
|----7-7-7-7-7---|--7-7--7----|----5-5-5-5-5---|--5-5--5----|
|-5------------5-|------------|-3------------3-|------------|

|----------------|------------|----------------|------------|
|----------------|------------|----------------|--7-7--7----|
|----3-3-3-3-3---|--3-3--3----|-5------------5-|------------|
|-1------------1-|------------|----5-5-5-5-5---|------------|

Verse 4

|----------------|------------|----------------|------------|
|----------------|------------|----------------|------------|
|----3-3-3-3-3---|--3-3--3----|----3-3-3-3-3---|--3-3--3----|
|-3------------3-|------------|-3------------3-|------------|

|----------------|------------|----------------|------------|
|----------------|------------|----------------|------------|
|----3-3-3-3-3---|--3-3--3----|-5------------5-|------------|
|-1------------1-|------------|----5-5-5-5-5---|--5-5--5----|

|----------------|------------|----------------|------------|
|----------------|------------|----------------|------------|
|----3-3-3-3-3---|--3-3--3----|----3-3-3-3-3---|--3-3--3----|
|-3------------3-|------------|-3------------3-|------------|

|----------------|------------|----------------|------------|
|----------------|------------|----------------|--7-7--7----|
|----3-3-3-3-3---|--3-3--3----|-5------------5-|------------|
|-1------------1-|------------|----5-5-5-5-5---|------------|

Bridge

|----------------|------------|----------------|------------|
|--------------7-|------------|----------------|------------|
|----7-7-7-7-7---|--7-7--7----|----------------|------------|
|-5--------------|------------|-0--7-7-7-7-7-0-|--7-7--7----|

|----------------|------------|----------------|------------|
|----------------|------------|----------------|------------|
|-5------------5-|------------|-7------------7-|------------|
|----5-5-5-5-5---|--5-5--5----|----7-7-7-7-7---|--7-7--7----|

|----------------|------------|----------------|------------|
|-7------------7-|------------|----------------|------------|
|----7-7-7-7-7---|--7-7--7----|----------------|------------|
|----------------|------------|-0--7-7-7-7-7-0-|--7-7--7----|

|----------------|------------|---------------|--------------|
|----------------|------------|-----------2-5-|--5-2---------|
|-5------------5-|------------|-------2h5-----|-------5h7p5--|
|----5-5-5-5-5---|--5-5--5----|-3--3----------|--------------|

Verse 5/Ending

||-----------------|------------|----------------|------------|
||o----------------|------------|----------------|------------|
||o----3-3-3-3-3---|--3-3--3----|----3-3-3-3-3---|--3-3--3----|
||--3------------3-|------------|-3------------3-|------------|

|----------------|------------|----------------|-------------||
|----------------|------------|----------------|------------o||
|----3-3-3-3-3---|--3-3--3----|----3-3-3-3-3---|--3-3--3----o||
|-1------------1-|------------|-1------------1-|-------------||

|----------------|------------|----------------|------------|
|--------------7-|------------|----------------|------------|
|----7-7-7-7-7---|--7-7--7----|----5-5-5-5-5---|--5-5--5----|
|-5--------------|------------|-3------------3-|------------|

|----------------|------------|----------------|------------|
|----------------|------------|----------------|--7-7--7----|
|----3-3-3-3-3---|--3-3--3----|-5------------5-|------------|
|-1------------1-|------------|----5-5-5-5-5---|------------|

|----------------|------------|----------------|------------|
|-7------------7-|------------|----------------|------------|
|----7-7-7-7-7---|--7-7--7----|----5-5-5-5-5---|--5-5--5----|
|----------------|------------|-3------------3-|------------|

|----------------|------------|----------------|------------|
|----------------|------------|----------------|--7-7--7----|
|----3-3-3-3-3---|--3-3--3----|-5------------5-|------------|
|-1------------1-|------------|----5-5-5-5-5---|------------|

|----------------|------------|----------------|------------|
|-7------------7-|------------|----------------|------------|
|----7-7-7-7-7---|--7-7--7----|----5-5-5-5-5---|--5-5--5----|
|----------------|------------|-3------------3-|------------|

|----------------|------------|-------------|--------------|
|----------------|------------|-------------|-2------------|
|----3-3-3-3-3---|--3-3--3----|----2-2-2----|---5--0-2-----|
|-1------------1-|------------|-0-----------|-----------0--|

|----------|---------|---------|---------*|
|----------|---------|---------|---------*|
|----------|---------|---------|---------*|
|-1--------|---------|---------|---------*|
Suggest correction
Give kudos to tab author, rate the tab!
1 2 3 4 5
comments
print report bad tab
guest
You may want to rate the tab now too:
select rating
Wanna post a correction for this tab? Suggest correction