Oops, an error
Loading. Please wait.

Bengali In Platforms Bass Tab

869 views 3 this week
no commentswrite comment
1 2 3 4 5
please rate
add to favorites
launch autoscroll
font size
0
reset
guitar tuner
Autoscroll
slow
fast
+/-
esc
set tempo
stop
Help us to improve Ultimate-Guitar.com Take our survey!
×
Author
Bengali In Platforms
Morrissey


Intro
G |--------------------------------|--------------------------------||
D |--------------------------------|-5-^-7-\(5)---3-------3---5-----||
A |-3-----------5------------------|--------------------------------||
E |--------------------------------|--------------------------------|| 2x

Verse A
G |--------------------------------|--------------------------------|
D |-------------7---------------5--|-7---5-------2-------3---2------|
A |-0------------------------------|--------------------------------|
E |--------------------------------|--------------------------------|

G |--------------------------------|--------------------------------|
D |-------------5------------------|--------------------------------|
A |--------------------------------|-------------5-------5----------|
E |-3---------------------------3--|-3-----------------------3------|

Chorus A
G |--------------------------------|--------------------------------||
D |-3-------3---2-------2----------|--------------------------------||
A |-------------------------3------|-3-------3---2-------3----------||
E |--------------------------------|-------------------------3------|| 2x

G |---------4-------4-------4------|--------------------------------|
D |-2------------------------------|-------------3-------2----------|
A |--------------------------------|-3-----------------------2------|
E |--------------------------------|--------------------------------|

G |--------------------------------|--------------------------------|
D |-5-----------5---------------5--|-5-----------5-------5---5------|
A |--------------------------------|--------------------------------|
E |--------------------------------|--------------------------------|

Chorus B
G |--------------------------------|--------------------------------|
D |-----------------------------3--|-----2-------0------------------|
A |-3-----------0---2---3----------|---------------------3---3------|
E |---------3----------------------|--------------------------------|

G |--------------------------------|--------------------------------|
D |-----------------------------3--|-3---2-------0------------------|
A |-5------------------------------|---------------------3-------3--|
E |-------------3---3--------------|--------------------------------|

Post Chorus
G |--------------------------------|--------------------------------|
D |--------------------------------|--------------------------------|
A |-3-----------3-------3----5-----|--------------------------------|
E |--------------------------------|-1-----------1-------1----1-----|

G |--------------------------------|--------------------------------| 
D |--------------------------------|-3-------3---2------------------|
A |-5-----------5-------5---5------|--------------------------3-----|
E |--------------------------------|--------------------------------|

G |--------------------------------|--------------------------------|
D |-----------------------------(2)|-3-----------2-------3----------|
A |-5-----------5-------5---5------|--------------------------5-----|
E |--------------------------------|--------------------------------|

G |--------------------------------|--------------------------------|
D |--------------------------------|--------------------------------|
A |-3-----------3-------3----5-----|--------------------------------|
E |--------------------------------|-1-----------1-------1----1-----|

G |--------------------------------|--------------------------------|
D |--------------------------------|-3---2-------3---2-------3---2--|
A |-5-----------5-------5---5------|---------3-----------3----------|
E |--------------------------------|--------------------------------|

Break
G |--------------------------------|--------------------------------|
D |--------------------------------|--------------------------------|
A |-------------2-------3----------|-5-----------3-------2----------|
E |-3------------------------------|-------------------------3------|

G |--------------------------------|--------------------------------|
D |-3-----------3-------3---3------|-3-------3---2-------2----------|
A |--------------------------------|-------------------------3------|
E |--------------------------------|--------------------------------|

G |--------------------------------|--------------------------------|
D |--------------------------------|-3---2-------3-------2----------|
A |-3-----------3-------3---3------|---------3---------------3------|
E |--------------------------------|--------------------------------|

G |--------------------------------|--------------------------------|
D |-2-----------2-------2---2------|-5-----------5-------5---5------|
A |--------------------------------|--------------------------------|
E |--------------------------------|--------------------------------|
Suggest correction
Give kudos to tab author, rate the tab!
1 2 3 4 5
comments
print report bad tab
guest
You may want to rate the tab now too:
select rating
Please do not post tabs as comments. Select "correction" instead!