Oops, an error
Loading. Please wait.

Driving Your Girlfriend Home Bass Tab

354 views 1 this week
no commentswrite comment
1 2 3 4 5
please rate
add to favorites
launch autoscroll
font size
0
reset
guitar tuner
Autoscroll
slow
fast
+/-
esc
set tempo
stop
Help us to improve Ultimate-Guitar.com Take our survey!
×
Author
Driving Your Girlfriend Home
Morrissey

Intro
G |--------------------------------|--------------------------------||
D |-----------------2--------------|-----------------2--------------||
A |---------2---------------2------|---------2---------------2------||
E |-0------------------------------|-0------------------------------|| 2x

Verse
G |--------------------------------|--------------------------------|
D |---------4----------------------|--------------------------------|
A |-3---------------4--------------|---------4-------0-------2------|
E |-------------------------4------|-2------------------------------| 2x

Bridge
G |--------------------------------|--------------------------------|
D |--------------------------------|--------------------------------|
A |-5-------5---\---2-------2------|-5-------5---\---2-------5------|
E |--------------------------------|--------------------------------| 2x

Chorus
G |--------------------------------|--------------------------------|
D |--------------------------------|--------------------------------|
A |-----------------0-------0------|-3-------3-------0-2-3-5--------|
E |-3-------3----------------------|-----------------------------2--| 2x

G |----------------|
D |---------0------|
A |-2--------------|
E |----------------|

Order:
[00:07] Intro
[00:34] Verse
[00:51] Bridge
[01:00] Chorus
Repeat This

[02:21] Break
[02:38] Intro
[02:55] Verse
End with Low E
Suggest correction
Give kudos to tab author, rate the tab!
1 2 3 4 5
comments
print report bad tab
guest
You may want to rate the tab now too:
select rating
Wanna post a correction for this tab? Suggest correction