Oops, an error
Loading. Please wait.

Everyday Is Like Sunday Bass Tab

5,831 views 6 this week
1 commentread comment
1 2 3 4 5
1 last vote to show rating
add to favorites
launch autoscroll
font size
0
reset
guitar tuner
Autoscroll
slow
fast
+/-
esc
set tempo
stop
Help us to improve Ultimate-Guitar.com Take our survey!
×
Author
Difficulty
intermediate
Everyday Is Like Sunday
Morrissey

Intro
G |--------------------------------|--------------------------------|
D |--------------------------------|--------------------------------|
A |-3-------3---3---3---3---3--\13-|----13--13--13--13--13--13\-----|
E |--------------------------------|--------------------------------|

Verse
G |--------------------------------|--------------------------------|
D |---------5----------------------|---------5---------------2---3--|
A |-3---3-----------3-------3---3--|-----3-----------3--------------|
E |--------------------------------|--------------------------------|

G |--------------------------------|--------------------------------|
D |-3---3---5-------3-------2---3--|-----3---5-------3--------------|
A |--------------------------------|--------------------------------|
E |--------------------------------|--------------------------------|

G |--------------------------------|--------------------------------|
D |---------5----------------------|---------5---------------2---3--|
A |-3---3-----------3-------3---3--|-----3-----------3--------------|
E |--------------------------------|--------------------------------|

G |--------------------------------|--------------------------------|
D |-3---3---5---------------2---3--|-----3---5----------------------|
A |-----------------3--------------|-----------------3--------------|
E |--------------------------------|--------------------------------|

Bridge
G |--------------------------------|--------------------------------|
D |-3---3---3---3---3---3---3---3--|--------------------------------|
A |--------------------------------|---------------------2---3---5--|
E |--------------------------------|-3---3---3---3---3--------------|

G |--------------------------------|--------------------------------|
D |-------------------------2---5--|-3---3---3---3---3---3---3---3--|
A |-3---3---3---3---3---3----------|--------------------------------|
E |--------------------------------|--------------------------------|

G |--------------------------------|--------------------------------|
D |--------------------------------|-----------------------------5--|
A |-0---0---0---0---3---5---7---5--|-0---0---0---0---3---5---7------|
E |--------------------------------|--------------------------------|

G |--------------------------------|--------------------------------|
D |-3---3---3---3---3---3---3---3--|-3---3---3---3---3---3---3---3--|
A |--------------------------------|--------------------------------|
E |--------------------------------|--------------------------------|

Chorus
G |--------------------------------|--------------------------------|
D |---------5---------------5------|-5---5---5---3-------2---3---5--|
A |-3---3-------3-------3----------|--------------------------------|
E |--------------------------------|--------------------------------|

G |--------------------------------|-------------5-------5----------|
D |-3---3---5---3-------3---3---2--|-3---3---3---------------3---5--|
A |--------------------------------|--------------------------------|
E |--------------------------------|--------------------------------|

Interlude
G |--------------------------------|--------------------------------|
D |--------------------------------|--------------------------------|
A |-0---0-------5-------5---3---5--|-0---0-------7-----------5------|
E |--------------------------------|--------------------------------|

G |--------------------------------|--------------------------------|
D |--------------------------------|--------------------------------|
A |-3-----------3---3-----------3--|-3-----------3---3--(3)--3---5--|
E |--------------------------------|--------------------------------|

G |--------------------------------|--------------------------------|
D |--------------------------------|--------------------------------|
A |-0---0-------5-------5---3---5--|-3-----------5-----------3------|
E |--------------------------------|--------------------------------|

G |--------------------------------|--------------------------------|
D |--------------------------------|--------------------------------|
A |--------------------------------|-------------------------2------|
E |-3-----------3---3-----------3--|-3-----------3---3---3-------3--|

G |--------------------------------|--------------------------------|
D |--------------------------------|--------------------------------|
A |--------------------------------|--------------------------------|
E |-1-----------1---1-----------1--|-1-----------1---1-----------1--|

G |--------------------------------|--------------------------------|
D |--------------------------------|--------------------------------|
A |--------------------------------|-------------------------2------|
E |-3-----------3---3-----------3--|-3-----------3---3-----------3--|

D |--------------------------------|--------------------------------|
A |--------------------------------|--------------------------------|
E |-1-----------1---1-----------1--|-1-----------1---1-----------1--|

G |--------------------------------|--------------------------------|
D |--------------------------------|--------------------------------|
A |--------------------------------|--------------------------------|
E |-3-----------3---3-----------3--|-3---3---3---3---3---3---3---3--|

Order:
[00:00] Intro 4x
[00:16] Verse
[00:32] Bridge
[00:49] Chorus 2x
[01:06] Verse
[01:22] Bridge
[01:38] Chorus 2x
[01:55] Interlude
[02:27] Chorus until end

 
Suggest correction
Give kudos to tab author, rate the tab!
1 2 3 4 5
comments
print report bad tab
1 comment total.
0 reply
swave75 382 Jun 04, 2011 03:44 PM

God I love the bass to this song!!! Thanks for tabbing this!!!

guest
You may want to rate the tab now too:
select rating
Wanna post a correction for this tab? Suggest correction