Oops, an error
Loading. Please wait.

First Of The Gang To Die Bass Tab

version 1
version 1

Whole song

Interactive

7,369 views 24 this week
no commentswrite comment
1 2 3 4 5
x 5
add to favorites
launch autoscroll
font size
0
reset
guitar tuner
Autoscroll
slow
fast
+/-
esc
set tempo
stop
Help us to improve Ultimate-Guitar.com Take our survey!
×
Author
First Of The Gang To Die
Morrissey

Intro/Chorus
G |--------------------------------|--------------------------------|
D |---------------4----------------|---------------8----------------|
A |-2-2-----2-2-----2-2-----2-2---4|-6-6-----6-6-----6-6-----6-6---6|
E |-------2---------------2--------|-------6---------------6--------|

G |--------------------------------|
D |---------------6----------------|
A |-4-4-----4-4-----4-4-----4-4---4|
E |-------4---------------4--------|

Intro/Chorus Endings A & B
G |--------------------------------| |--------------------------------|
D |-4-4-----4-4---4-4-2-2-1-2---1--| |-4-4-----------4---6-6-4-6-6-8--|
A |-------4------------------------| |-------4------------------------|
E |--------------------------------| |---------2-2--------------------|

Verse
G |--------------------------------|--------------------------------|
D |--------------------------------|-------------------6----/8---6--|
A |-2-----2-2-----2---2---2-2---4--|-----------------------6--------|
E |--------------------------------|-4-----4-4-----4----------------|

G |--------------------------------|--------------------------------|
D |---------------------5---6---8--|-------------------4------------|
A |-6-----6-6-----6---6---6--------|-----------------------7---6-4--|
E |--------------------------------|-2-----2-2-----2----------------|

G |--------------------------------|--------------------------------|
D |--------------------------------|-------------------6----/8---6--|
A |-2-----2-2-----2---2---2-2---4--|-----------------------6--------|
E |--------------------------------|-4-----4-4-----4----------------|

G |--------------------------------|--------------------------------|
D |-------------------5---5-6---8--|--------------------------------|
A |-6-----6-6-----6----------------|-7-----7-7--\--4---5---5---5-4-5|
E |--------------------------------|--------------------------------|

Bridge
G |--------------------------------|--------------------------------|
D |--------------------------------|--------------------------------|
A |-4-4-4-4-4-4-6-4-4-4-4-4-4-4-6--|-----------------6-6-6-6-5-5-5--|
E |--------------------------------|-4-4-4-4-4-4-4------------------|

G |--------------------------------|--------------------------------|
D |--------------------------------|-------------------------4------|
A |-4-4-4-4-4-4-6-4-4-4-4-4-4-4-6--|-----------------------4---4----|
E |--------------------------------|-4-4-4-4-4-4-4-0-2-2---------2--|

Instrumental
G |--------------------------------|--------------------------------|
D |--------------------------------|--------------------------------|
A |-0-0-0-0-0-0-0-0-0-0-0-0-0-0-0-0|-4-4-4-4-4-4-4-4-4-4-4-4-4-4-4-4|
E |--------------------------------|--------------------------------|

G |--------------------------------|--------------------------------|
D |--------------------------------|--------------------------------|
A |-5-5-5-5-5-5-5-5-5-5-5-5-5-5-5-5|-7-7-7-7-7-7-7-7-7-5-5-4-5--7---|
E |--------------------------------|--------------------------------|

Order:
[00:04] Intro | End A

[00:18] Verse
[00:47] Bridge
[01:01] Chorus | End A | Chorus | Ending B
Repeat Above Block

[02:26] Instrumental
[02:41] Chorus | End A | Chorus | End B | Chorus | End A...

 
Suggest correction
comments
print report bad tab
guest
You may want to rate the tab now too:
select rating
Wanna post a correction for this tab? Suggest correction