Oops, an error
Loading. Please wait.

Harsh Truth Of The Camera Eye Bass Tab

196 views 1 this week
no commentswrite comment
1 2 3 4 5
please rate
add to favorites
launch autoscroll
font size
0
reset
guitar tuner
Autoscroll
slow
fast
+/-
esc
set tempo
stop
Help us to improve Ultimate-Guitar.com Take our survey!
×
Author
The Harsh Truth Of The Camera Eye
Morrissey

Intro
G |---------4----------------------|---------4----------------------|
D |-2---------------4--------------|-2-------------2-4-------5---4--|
A |-------------------------2-----2|--------------------------------|
E |--------------------------------|--------------------------------|

G |---------4----------------------|---------4----------------------|
D |-2---------------4--------------|-2-------------2-4-------5-\----|
A |-------------------------2-----2|--------------------------------|
E |--------------------------------|--------------------------------|

Chorus
G |--------------------------------|--------------------------------|
D |---------5---------------7------|---------4---------5-------7----|
A |-3---------------5--------------|-2---------------3---3---5---5--|
E |--------------------------------|--------------------------------|

Post-Chorus
G |--------------------------------|--------------------------------|
D |-------------------------5------|--------------------------------|
A |---------5-------3--------------|---------4-------2-------5------|
E |-3------------------------------|-2------------------------------|

Chorus
G |--------------------------------|---------------0---------------0|
D |-0---------------0-----------0--|---------2---------------2------|
A |---------0---------------0------|-3---------------3--------------|
E |--------------------------------|--------------------------------|

G |--------------------------------|--------------------------------|
D |---------0---3-----------0---3--|-0---------------0--------------|
A |-1---------------1--------------|---------0-------------0-3-0-3--|
E |--------------------------------|--------------------------------|

Order:
[00:33] Verse
[00:49] Chorus
Repeat This

[01:22] Post Chorus 2x
[01:39] Verse
[01:56] Chorus

[02:04] Verse
[02:20] Chorus
[02:29] Post Chorus 2x
Repeat Above Block

[03:26] Verse (Instrumental Fade Out)
Suggest correction
What's this?
You can suggest a correction to this tab. Community and Mods will review your correction and vote to approve or reject it.
comments
We did not receive enough feedback on this tab! Please rate:
print report bad tab
1 2 3 4 5
guest
You may want to rate the tab now too:
select rating
Please do not post tabs as comments. Select "correction" instead!