Oops, an error
Loading. Please wait.

Hold On To Your Friends Tab

version 2
version 2

Whole song

3,213 views 6 this week
2 commentsread comments
1 2 3 4 5
x 4
add to favorites
launch autoscroll
font size
0
reset
how to read this tab
guitar tuner
Autoscroll
slow
fast
+/-
esc
set tempo
stop
Help us to improve Ultimate-Guitar.com Take our survey!
×
Capo
4th fret
Capo 4th fret

Intro:

e|------------------------------------0----------|
B|----------------------------3------------0-----|
G|--------0---------0----------------------------|  Repeat this three times
D|-----9---------8---------2---------------------|
A|-11---------9---------3---------3--------------|
E|-----------------------------------------------|

Then, fourth time

e|-----------------------------------------------|
B|-----------------------------------------3-----|
G|--------0---------0-----------------0----------|
D|-----9---------8---------0---2---4-------------|
A|-11---------9---------3------------------------|
E|-----------------------------------------------|


*Verse 1(All chord names relative of capo):

Firstly, there's a chord that I dont know the name of, I've called it A?. It's this

e|----3-------------|
B|----1-------------|
G|----0-------------|
D|----1-------------|
A|----0-------------|
E|------------------|


*Now for the Verse..

e|------------0-------------------0---------------|
B|---------------3-------------------3------------|
G|--------0---------0---------0---------0---------|
D|-----4------------------4-----------------------|
A|--2------------------3--------------------------|
E|------------------------------------------------|
  A        bond of     trust.....

e|------------0-------------------0---------------|
B|---------------3-------------------3------------|
G|--------0---------0---------0---------0---------|
D|-----4------------------4-----------------------|
A|--2------------------3--------------------------|
E|------------------------------------------------|
   Has     been        abused.....

Am           D        G
Something of value

G      C
May be lost

A?           G
Give up your job

G             C         A?
Squander your cash - be rash

Am                   D
Just hold on to your friends

*Back to Intro

*Verse 2 - Same Chords as Verse 1:

There are more than enough
To fight and oppose
Why waste good time
Fighting the people you like
Who will fall defending your name
Oh, don't feel so ashamed..

* Back to Intro over this line
To have friends

*Verse 3 - Same chords again

But now you only call me
When you're feeling depressed
When you feel happy I'm
So far from your mind
My patience is stretched
My loyalty vexed
Oh, you're losing all..

*Back to Intro over this line
of your friends

G               C
Hold on to your friends

     A? G
Hold on to your friends

G                C
Resist - or move on

   A?      G
Be mad, be rash

G            C
Smoke and explode

     A?          G
Sell all of your clothes

G            C
Just bear in mind :

A?   Am                     D
Oh, there just might come a time..

*Intro over this line
When you need some friends

Outro gets all electrified so I haven't done this..
Suggest correction
comments
print report bad tab
2 comments total.
0 reply
Trifonas 633 Apr 08, 2012 12:27 PM

When he says this:
e|------------------------------------0----------|
B|----------------------------3------------0-----|
G|--------0---------0----------------------------|
D|-----9---------8---------2---------------------|
A|-11---------9---------3---------3--------------|
E|-----------------------------------------------|

he means:

e|------------------------------------0----------|
B|----------------------------3------------0-----|
G|--------0---------0----------------------------|
D|-----5---------4---------2---------------------|
A|-7---------5---------3---------3--------------|
E|-----------------------------------------------|

hope that it helps! nice tab

0 reply
danielmilmine 10 Oct 26, 2016 11:17 AM

Correct me if I'm wrong but I think the "A?" Chord is a D#6 chord

guest
You may want to rate the tab now too:
select rating
Wanna post a correction for this tab? Suggest correction