Oops, an error
Loading. Please wait.

Irish Blood English Heart Tab

version 2
version 2

Whole song

Interactive

2,732 views 1 this week
no commentswrite comment
1 2 3 4 5
please rate
add to favorites
launch autoscroll
font size
0
reset
how to read this tab
guitar tuner
Autoscroll
slow
fast
+/-
esc
set tempo
stop
Help us to improve Ultimate-Guitar.com Take our survey!
×
-------------------------------------------------------------------------------
                             Irish Blood, English Heart - Morrissey
-------------------------------------------------------------------------------
Morrissey - Irish Blood, English Heart
5/26/04
by Adis K.
cerrenus@hotmail.com


Notes:

Standard Tuning

B = Bend note
x = Mute note

The beginning and the verse use a tricky strumming pattern.  The easiest way 
to describe it is it's like a horse's galloping.  Listen to the song and you 
should be able to pick it up.  I tried to draw out the strumming pattern to 
the best of my ability.

"Gallop strumming"

1--&--2--&--3--&--4--&   1--&--2--&--3--&--4--&

-- -  -- -  -- -  -- - | -- -  -- -  -- -  -- -

Intro & Verse
e|---------------------------------------------------------------------------|
B|---------------------------------------------------------------------------|
G|---------------------------------------------------------------------------|
D|--10-x-x-9-x-x-10-x-x-10-x-x-10-x-x-12-x-x-10-x-x-12-----------------------|
A|--x--x-x-x-x-x-x--x-x-x--x-x-x--x-x-x--x-x-x--x-x-x------------------------|
E|---------------------------------------------------------------------------|

e|---------------------------------------------------------------------------|
B|---------------------------------------------------------------------------|
G|---------------------------------------------------------------------------|
D|--x-x-10-x-x-9-x-x-10-x-x-9-x-x-10-x-x-9-x-x-10-x-x-9----------------------|
A|--x-x-x--x-x-x-x-x-x--x-x-x-x-x-x--x-x-x-x-x-x--x-x-x----------------------|
E|---------------------------------------------------------------------------|

Chorus

e|---------------------------------------------------------------------------|
B|---------------------------------------------------------------------------|
G|---------10-10-10-10-10-10-10-10--12-12-12-12-12-12-12-12------------------|
D|--12B----x--x--x--x--x--x--x--x---x--x--x--x--x--x--x--x-------------------|
A|---------8--8--8--8--8--8--8--8---10-10-10-10-10-10-10-10------------------|
E|---------------------------------------------------------------------------|

e|---------------------------------------------------------------------------|
B|---------------------------------------------------------------------------|
G|--10-10-10-10-10-10-10-10--9-9-9-9--7-7-7-7--2-2-2-2-2-2-2-2-(2)-----------|
D|--x--x--x--x--x--x--x--x---x-x-x-x--x-x-x-x--2-2-2-2-2-2-2-2-(2)-----------|
A|--8--8--8--8--8--8--8--8---7-7-7-7--5-5-5-5--0-0-0-0-0-0-0-0-(0)-----------|
E|---------------------------------------------------------------------------|

e|---------------------------------------------------------------------------|
B|---------------------------------------------------------------------------|
G|-----------10-10-10-10-10-10-10-10--12-12-12-12-12-12-12-12----------------|
D|-----------x--x--x--x--x--x--x--x---x--x--x--x--x--x--x--x-----------------|
A|--0--2--3--8--8--8--8--8--8--8--8---10-10-10-10-10-10-10-10----------------|
E|---------------------------------------------------------------------------|

e|---------------------------------------------------------------------------|
B|---------------------------------------------------------------------------|
G|--14-14-14-14-14-14-14-14--16-16-16-18-18-18-18-18-------------------------|
D|--x--x--x--x--x--x--x--x---x--x--x--x--x--x--x--x--------------------------|
A|--12-12-12-12-12-12-12-12--14-14-14-14-16-16-16-16-------------------------|
E|---------------------------------------------------------------------------|

These last 2 sections are played on seperate guitars but at the same time.

e|---------------------------------------------------------------------------|
B|---------------------------------------------------------------------------|
G|--2-2-2-2-2-2-2-2-2-2-2-2-2-2-2-2-2-2-2-2-(2)------------------------------|
D|--2-2-2-2-2-2-2-2-2-2-2-2-2-2-2-2-2-2-2-2-(2)------------------------------|
A|--0-0-0-0-0-0-0-0-0-0-0-0-0-0-0-0-0-0-0-0-(0)------------------------------|
E|---------------------------------------------------------------------------|

e|---------------------------------------------------------------------------|
B|---------------------------------------------------------------------------|
G|-----12-12-12-12-11-11-11-11-10-10-10-10--(9)------------------------------|
D|-----x--x--x--x--x--x--x--x--x--x--x--x----x-------------------------------|
A|-----10-10-10-10-9--9--9--9--8--8--8--8---(7)------------------------------|
E|---------------------------------------------------------------------------|
comments
We did not receive enough feedback on this tab! Please rate:
print report bad tab
1 2 3 4 5
I want to post or [tab]
guest
You may want to rate the tab now too:
select rating
Please do not post tabs as comments. Select "correction" instead!