Oops, an error
Loading. Please wait.

Let The Right One Slip In Bass Tab

828 views 1 this week
no commentswrite comment
1 2 3 4 5
3 more votes to show rating
add to favorites
launch autoscroll
font size
0
reset
guitar tuner
Autoscroll
slow
fast
+/-
esc
set tempo
stop
Help us to improve Ultimate-Guitar.com Take our survey!
×
Author
Let The Right One Slip In
Morrissey

Verse A
G |--------------------------------|--------------------------------|
D |--------------------------------|--------------------------------|
A |-5-5-5-5-5-5-5-5-5-5-5-5-5-5-5-5|-----------------0-0-2-2-4-4-4-4|
E |--------------------------------|-3-3-3-3-3-3-3-3----------------|

Verse B
G |--------------------------------|--------------------------------|
D |--------------------------------|-5-5-5-5-5-5-5-5-7-7-5-5-4-4-2-2|
A |-5-5-5-5-5-5-5-5-5-5-5-5-5-5-5-5|--------------------------------|
E |--------------------------------|--------------------------------|

Chorus
G |-----------------4-4-----4-4----|--------------------------------||
D |-0-0-4-4-7-7-4-4-----5-5-----5-5|-5-5-7-7-4-4-2---5-5-4-4-2---4--||
A |--------------------------------|--------------------------------||
E |--------------------------------|--------------------------------|| 2x

Break
G |--------------------------------|--------------------------------|
D |--------------------------------|-----------------7-7-7---7-7-7--|
A |-7-7-7---7-7-7---0-0-0---0-0-0--|-7-7-7---7-7-7------------------|
E |--------------------------------|--------------------------------|

G |--------------------------------|--------------------------------|
D |-4-4-4---4-4-4------------------|----------------(5-5-5-5)5-5-5--|
A |-----------------2-2-2---2-2-2--|-7------------------------------|
E |--------------------------------|--------------------------------|

G |--------------------------------|
D |-7-7-7-7-7-7-7-7----------------|
A |-----------------0-0-2-2-4-4-4-4|
E |--------------------------------|

Outro
G |--------------------------------|--------------------------------|
D |-----------------4-4-4-4-4-4-4-4|-9-9-9-9-9-9-9-9-7-7-7-7-6-6-6-6|
A |-7-7-7-7-7-7-7-7----------------|--------------------------------|
E |--------------------------------|--------------------------------|

Order:
[00:19] Verse A,B
[00:31] Chorus
[00:44] Verse A,B
[00:56] Chorus
[01:09] Break
[01:24] Chorus
[01:37] Verse A,A
[01:49] Chorus (1st one a bit different)
[02:02] Outro
Suggest correction
Give kudos to tab author, rate the tab!
1 2 3 4 5
comments
print report bad tab
guest
You may want to rate the tab now too:
select rating
Wanna post a correction for this tab? Suggest correction