Oops, an error
Loading. Please wait.

More You Ignore Me tab

version 2
version 2

Whole song

3,704 views 1 this week
no commentswrite comment
1 2 3 4 5
x 4
add to favorites
×
Save as Personal and add changes to this tab that will be seen only by you. Learn more ›
×
You can save this tab as Personal to edit and correct it or add notes. All changes will be seen only by you. Learn more »
launch autoscroll
font size
0
reset
how to read this tab
guitar tuner
edit
Autoscroll
slow
fast
+/-
esc
set tempo
stop
Author
Difficulty
/= slide
h= hummer on
b=bend up
GUITAR 1

intro- and this part is the same from the first verse

E----------------------------------------------------------------|
B----------------------------------------------------------------|
G----------------------------------------------------------------|
D----4-4---6-6/8----------------4-6b8----4-----------------------|
A------------------8/6-6---4h6---------6-------------------------|
E----------------------------------------------------------------|
pre-chorus ( i will beeeee in the bar.......) starts at 00:33

RIFF GUITAR 2

E-----11-10--8/10---6----------------------------------------------|
B-----12-11--9/11---7----------------------------------------------|
G------------------------------------------------------------------|
D------------------------------------------------------------------|
A------------------------------------------------------------------|
E------------------------------------------------------------------|


E------------------------------------------------------------------|
B------------------------------------------------------------------|
G------------------------------------------------------------------| 3x
D----4-4/3----3-------------4-4--4/3-------------------------------
A-----------6----4-4---6-8-----------------------------------------|
E------------------------------------------------------------------|

change a little bit in second 00:49

E------------------------------------------------------------------|
B------------------------------------------------------------------|
G------------------------------------------------------------------|
D----4-4/3----3-4-4--4/3-----3----------------9v------9-8--6/8-4---|
A-----------6-------------6----4-4------6--8-----------------------|
E------------------------------------------------------------------|


chorus  1:01 ( yeahhh i made up your mind........
little fast
E------------------------------------------------------------------|
B-------7--6--4---3----------7--6--4---3---------------------------|
G--------8--6--5-3-3----------8--6--5-3-3--------------------------|
D------------------------------------------------------------------| 7x
A------------------------------------------------------------------|
E------------------------------------------------------------------|

the next parts of the song it repeats till the minute 3:07

if you want you can play this part like two guitars in one i like it


E-------------------------------------------------------------------|
B-------------------------------------------------------------------|
G-------------------------------------------------------------------|2 X
D---444-44--333-33-------------------4--6b8------4------------------|
A--------------------666-66-----4h6-----------6---------------------|
E-------------------------------------------------------------------|

END 
E----------------------------------------------------------------|
B----------------------------------------------------------------|
G----------------------------------------------------------------|
D----4-4---6-6/8----------------4-6b8----4-----------------------|
A------------------8/6-6---4h6---------6-------------------------|
E----------------------------------------------------------------|
guitar II
E-----11-10--8/10---6----------------------------------------------|
B-----12-11--9/11---7----------------------------------------------|
G------------------------------------------------------------------|
D------------------------------------------------------------------|
A------------------------------------------------------------------|
E------------------------------------------------------------------|




            
            
Suggest correction
Creating personal tab
Creating personal tab
You can edit any tab online and save it as your Personal.

You can edit, replace or remove any tab part or add personal notes – all changes will be seen only by you.

Personal tabs can be accessed anytime from any device, even offline.
Learn more »
comments
print report bad tab
guest
You may want to rate the tab now too:
select rating
Wanna post a correction for this tab? Suggest correction