Oops, an error
Loading. Please wait.

Nobody Loves Us Bass Tab

276 views 1 this week
no commentswrite comment
1 2 3 4 5
3 more votes to show rating
add to favorites
launch autoscroll
font size
0
reset
guitar tuner
Autoscroll
slow
fast
+/-
esc
set tempo
stop
Help us to improve Ultimate-Guitar.com Take our survey!
×
Author
Nobody Loves Us
Morrissey

Intro/Chorus
G |--------------------------------|--------------------------------|
D |--------------------------------|--------------------------------|
A |--------------------------------|--------------------------------|
E |-5-------5---5---5-------5---5--|-----5---5-------7-------5------|

G |--------------------------------|--------------------------------|
D |--------------------------------|--------------------------------|
A |--------------------------------|-----------------11-------------|
E |-4\---------/7\-------/(10)\----|---/12--------------------------|

G |--------------------------------|--------------------------------|
D |------------------------12------|----11-----------9---^--11------|
A |-10---------10------------------|--------------------------------|
E |--------------------------------|--------------------------------|

G |--------------------------------|--------------------------------|
D |--------------------------------|--------------------------------|
A |--------------------------------|--------------------------------|
E |-10---------10----------10------|----10----------12\-------------|

G |--------------------------------|--------------------------------|
D |--------------------------------|--------------------------------|
A |-------------0-----------3/-----|-------\7--------8--------------|
E |-1------------------------------|--------------------------------|

G |--------------------------------|--------------------------------|
D |--------------------------------|--------------------------------|
A |-7-----------7-----------4------|-----5--------------------------|
E |--------------------------------|-----------------5--------------|

Intro/Chorus End
G |--------------------------------|--------------------------------|
D |--------------------------------|--------------------------------|
A |--------------------------------|--------------------------------|
E |-0~~~---------------------------|--------------------------------|

G |--------------------------------|--------------------------------|
D |--------------------------------|--------------------------------|
A |(7)~~---------------------------|--------------------------------|
E |--------------------------------|--------------------------------|

Part Between Two Chorussus
G |--------------------------------|--------------------------------|
D |--------------------------------|--------------------------------|
A |--------------------------------|--------------------------------|
E |-0----------0------------0------|-----0-----------0\-------------|

G |--------------------------------|--------------------------------|
D |--------------------------------|--------------------------------|
A |\7----------7------------7------|-----7-----------9-------7\-----|
E |--------------------------------|--------------------------------|

Verse
G |--------------------------------|--------------------------------|
D |--------------------------------|--------------------------------|
A |-2-----------2-----------2------|-----2-----------5--------------|
E |--------------------------------|--------------------------------|

G |--------------------------------|--------------------------------|
D |--------------------------------|--------------------------------|
A |-0-----------0-----------0------|-0---0-----------4?-------------|
E |--------------------------------|--------------------------------|

G |--------------------------------|--------------------------------|
D |--------------------------------|--------------------------------|
A |--------------------------------|--------------------------------|
E |-3-----------3-----------3------|-3---3-----------5--------------|

G |--------------------------------|--------------------------------|
D |--------------------------------|--------------------------------|
A |-5-----------5-----------5------|-5---5---5-------7--(5)---------|
E |--------------------------------|--------------------------------|

G |--------------------------------|--------------------------------|
D |--------------------------------|--------------------------------|
A |-2-----------2-----------2------|-2---2-----------4-------5------|
E |--------------------------------|--------------------------------|

G |--------------------------------|--------------------------------|
D |-4-----------4-----------4------|-4---4-------------------4------|
A |--------------------------------|-----------------5--------------|
E |--------------------------------|--------------------------------|

G |--------------------------------|--------------------------------|
D |-5-----------5-----------5------|-5---5-----------7\-------------|
A |--------------------------------|--------------------------------|
E |--------------------------------|--------------------------------|

G |--------------------------------|--------------------------------|
D |-2------------------------------|----------------(2)-------------|
A |-------------------------2------|------------------------(0)-----|
E |-----------------------------0--|--------------------------------|

Bridge
G |--------------------------------|--------------------------------|
D |--------------------------------|--------------------------------|
A |-2-------2---2---2-------4---4--|-----4---4-------4-------4---4--|
E |--------------------------------|--------------------------------|

G |--------------------------------|---------------------7-^-6------|
D |--------------------------------|-------------7-^-9-----------9--|
A |-5-------5---5---5-------7---7--|-----7---7----------------------|
E |--------------------------------|--------------------------------|

G |--------------------------------|--------------------------------|
D |--------------------------------|--------------------------------|
A |-2-------2---2---2-------4---4--|-----4---4-------4-------4---4--|
E |--------------------------------|--------------------------------|

G |--------------------------------|--------------------------------|
D |--------------------------------|--------------------------------|
A |-5-------5---5---5-------7---7--|-----7---7\---------------------|
E |--------------------------------|--------------------------------|

Break
G |--------------------------------|--------------------------------|
D |-4-------4---4---4-------6---6--|-----7---7-------7\-------------|
A |--------------------------------|--------------------------------|
E |--------------------------------|--------------------------------|

G |--------------------------------|--------------------------------|
D |--------------------------------|--------------------------------|
A |-5-------5---5---5-------5---5--|-----7-----------7\-------------|
E |--------------------------------|--------------------------------|

G |--------------------------------|--------------------------------|
D |--------------------------------|--------------------------------|
A |-4-------4---4---4-------4---4--|---------4----------------------|
E |--------------------------------|-----4-------4---4--------------|

G |--------------------------------|--------------------------------|
D |--------------------------------|--------------------------------|
A |-4-------4---4---4-------4---4--|-----4---5-------4--------------|
E |--------------------------------|--------------------------------|

G |--------------------------------|--------------------------------|
D |-4-------4---4---4-------6---6--|-----7---7-------7\-------------|
A |--------------------------------|--------------------------------|
E |--------------------------------|--------------------------------|

G |--------------------------------|--------------------------------|
D |--------------------------------|--------------------------------|
A |-5-------5---5---5-------5---5--|-----5---5-------7-------9------|
E |--------------------------------|--------------------------------|

G |--------------------------------|--------------------------------|
D |--------------------------------|--------------------------------|
A |-4-------4---4---4-------4---4--|-----4---4-------4--------------|
E |--------------------------------|-------------------------4------|

G |--------------------------------|--------------------------------|
D |--------------------------------|--------------------------------|
A |-4-------4---4---4-------0------|-----4-----------5--------------|
E |--------------------------------|--------------------------------|

Order:
[00:00] Intro | Intro End
Block
[00:22] Verse
[00:43] Bridge
[00:53] Chorus | Part Between Chorrusses
[01:14] Chorus | Chorus End
Repeat Above Block

[02:48] Break
[03:09] Chorus | Part Between Chorrusses
[03:30] Chorus | Part Between Chorrusses
[03:51] Bridge
[04:01] Chorus | Part Between Chorrusses
[04:22] Chorus | Chorus End
Suggest correction
Give kudos to tab author, rate the tab!
1 2 3 4 5
comments
print report bad tab
guest
You may want to rate the tab now too:
select rating
Wanna post a correction for this tab? Suggest correction